top separator

Home

Forum

What's New

Submit a Tab

FAQ

Links

Contact Us

Link to Us

MetalTabs.com logo

Bands

0-9

A

B

C

D

E

F

G

H

I

J

K

L

M

N

O

P

Q

R

S

T

U

V

W

X

Y

Z

Search

What

Where
 

Finntroll - "RivFader" Guitar Tab

Plain Text Version
More Finntroll Tabs

Hits: 10013
Rated: 3.75 out of 5 (4 votes)
Updated: 2004-04-26 04:48:59

 

By:

Darkenelf

sendpm.gif

email.gif

Important note
This tab is available online because we obtained explicit permission from Finntroll or their label.


#----------------------------------PLEASE NOTE---------------------------------#
#This file is the author's own work and represents their interpretation of the #
#song. You may only use this file for private study, scholarship, or research. #
#Unless specified otherwise, this is NOT an official tab from the band members.#
#------------------------------------------------------------------------------#

  Visit MetalTabs.com for more metal tablature
  
Band: Finntroll
Album: Midnattens Widunder
Song: Rivfader
Tabbed by: Martijn Wietsma
Tab Date: 24-04-2004
Email: northerland@yahoo.co.uk
Version: 1.0

Standard E Tuning

. = palm mute
/ = slide forward
\ = slide backward
h = hammer
p = pick
~ = open note

(drum + bass intro)

riff A (0:08)
|----------------------------------------------------|
|----------------------------------------------------|
|----------------------------------------------------|
|----------------------------------------------------|
|----9-----4-----5-----7-----------------------------|
|-77-7--22-2--33-3--55-5-----------------------------|
  ..    ..    ..    ..                                 (4x)

riff B (0:08) (this part is very hard to hear, and sounds for 60% right.)
|-----------------------------------------------------------|
|-----------------------------------------------------------|
|--------------------9~-10-9-7h9-7h-------------------------|
|-0h7h9h10-9-7----7-----------------10---0h7h9h10-9-7----7~-|
|--------------10-------------------------------------10----|
|-----------------------------------------------------------|

riff C (0:18)
|----------------------------------------------------|
|----------------------------------------------------|
|----------------------------------------------------|
|----------------------------------------------------|
|-9---4---5---7--------------------------------------|
|-7---2---3---5--------------------------------------|
                                                (4x)
repeat riff A 4x, B 1x (0:26)
repeat riff C 4x (0:36)

riff D (0:46)
|---------------------------------------------------------------------|
|---------------------------------------------------------------------|
|---------------------------------------------------------------------|
|-----------------------------------------------------10p8p7-10p8p7p6-|
|----99-----99-----99-----------1010----1010----1010------------------|
|-77-----77-----77----10-9---88------88------88-----------------------|
 p.m................................................        (4x)

riff E (1:06)
|----------------------------------------------------|
|----------------------------------------------------|
|----------------------------------------------------|
|----------------------------------------------------|
|-9-4-5-7--9-4-5-7--9-4-5-7--9-11-12-14--------------|
|-7-2-3-5--7-2-3-5--7-2-3-5--7--9-10-12--------------|

|----------------------------------------------------|
|----------------------------------------------------|
|----------------------------------------------------|
|----------------------------------------------------|
|-9-4-5-7--9-4-5-7--9-4-5-7--9~~~~-------------------|
|-7-2-3-5--7-2-3-5--7-2-3-5--7-----------------------|

|----------------------------------------------------|
|----------------------------------------------------|
|----------------------------------------------------|
|----------------------------------------------------|
|-9-4-5-7--9-4-5-7--9-4-5-7--9-11-12-14--------------|
|-7-2-3-5--7-2-3-5--7-2-3-5--7--9-10-12--------------|

|----------------------------------------------------|
|----------------------------------------------------|
|----------------------------------------------------|
|----------------------------------------------------|
|-9-4-5-7--9-4-5-7--9-4-5-7--9-9-9-9-9---------------|
|-7-2-3-5--7-2-3-5--7-2-3-5--7-7-7-7-7---------------|
                             . . . .

(keyboard part)

riff F (keyboard) (1:42)
|-2h3p2----------------------------------------------|
|---------2h3p2---2h3---2~--3p2-0--------------------|
|----------------------------------------------------|
|----------------------------------------------------|
|----------------------------------------------------|
|----------------------------------------------------|

(1:58) another keyboard part

riff G (2:15)
|----------------------------------------------------|
|----------------------------------------------------|
|----------------------------------------------------|
|----------------------------------------------------|
|-9--5--7--5/7--9------------------------------------|
|-7--3--5--3/5--7------------------------------------|
                                                (8x)
repeat riff A 4x, B 1x (2:45)
repeat riff C 4x (2:56)
repeat riff A 4x, B 1x (3:05)
repeat riff C 4x (3:15)
repeat riff D 4x (3:25)
repeat riff E 1x (3:45) till end of song!

  Visit MetalTabs.com for more metal tablature

bottom separator

Contact Us | Privacy Policy | Disclaimer | Legal Notice
Copyright © 2001-2014 MetalTabs.com. All Rights Reserved.