top separator

Home

Forum

What's New

Submit a Tab

FAQ

Links

Contact Us

Link to Us

MetalTabs.com logo

Bands

0-9

A

B

C

D

E

F

G

H

I

J

K

L

M

N

O

P

Q

R

S

T

U

V

W

X

Y

Z

Search

What

Where
 

Darkthrone - "The Dance Of Eternal Shadows" Guitar Tab

Plain Text Version
More Darkthrone Tabs

Hits: 9736
Rated: 3.22 out of 5 (9 votes)
Updated: 2002-07-28 14:30:39

 

Important note
This tab is available online because we obtained explicit permission from Darkthrone or their label.


#----------------------------------PLEASE NOTE---------------------------------#
#This file is the author's own work and represents their interpretation of the #
#song. You may only use this file for private study, scholarship, or research. #
#Unless specified otherwise, this is NOT an official tab from the band members.#
#------------------------------------------------------------------------------#

  Visit MetalTabs.com for more metal tablature
  
Band:  Darkthrone
Album: Under a funeral moon
Song:  The Dance of the eternal shadows

Version 1.0 - 28/6/2002

Transcribed By: Darko Loncar - Morgoth
Email:          darko.loncar@kr.hinet.hr



  " - Tremolo picking
  \ - Slide down
  / - Slide up

  Riff 1: Intro - 1x

  E|---------------------------------------------------------------|
  B|---------------------------------------------------------------|
  G|---------------------------------------------------------------|
  D|-3-3--3/9-9\8--4-4-4-4--3-3--3/9-9\8-4-4-4-4-44--3-3--3/9-9\8--|
  A|-3-3--3/9-9\8--4-4-4-4--3-3--3/9-9\8-4-4-4-4-44--3-3--3/9-9\8--|
  E|-1-1--1/7-7\6--2-2-2-2--1-1--1/7-7\6-2-2-2-2-22--1-1--1/7-7\6--|


  Riff 2: - continuing of Riff 1 - 8x

  E|---------|
  B|---------|
  G|---------|
  D|-4-4-5-5-|
  A|-4-4-5-5-|
  E|-2-2-3-3-|


  Riff 3:

  E|------------------------------|  - Played only first time
  B|------------------------------|
  G|------------------------------|
  D|-11---13-11---13-11-13-11-13--|
  A|-9----10-9----10--9-10-9--10--|
  E|------------------------------|
     "    "  "    "   " "  "  "

  E|---------------------------------| - Played through the whole song
  B|---------------------------------|
  G|---------------------------------|
  D|-11---13-11---13-11-13-16--13-11-|
  A|-9----10-9----10--9-10-14--10-9--|
  E|---------------------------------|
     "    "  "    "   " "  "   "  "


  Riff 4: - 2x

  E|---------------------------|  - After the second verse play without
  B|---------------------------|    tremolo picking
  G|---------------------------|
  D|---------------------------|
  A|-9----7----7--5----3--2----|
  E|-7----5----5--3----1--0----|
     "    "    "  "    "  "

  Riff 5:

  E|----------------------------|--------------|--------------|
  B|----------------------------|--------------|--------------|
  G|----------------------------|--------------|--------------|
  D|-4------7---------6---------|-2-3-2--2-3-2-|-2-3-2--4-5-4-|
  A|-4--4-4-5-3-3-3-3-4-4-4-4-4-|-0-1-0--0-1-0-|-0-1-0--2-3-2-|
  E|-2--2-2---5-5-5-5---2-2-2-2-|--------------|--------------|


  Riff 6: End

  E|---------------------------------------------------------------|
  B|---------------------------------------------------------------|
  G|---------------------------------------------------------------|
  D|-2----5--5\4--4-2--2----5--5\4----2--5--5\4--4--2--------------|
  A|-2----3--3\2--2-2--2----3--3\2----2--3--3\2--2--2--let ring----|
  E|-0--------------0--0--------------0-------------0--------------|

  Visit MetalTabs.com for more metal tablature

bottom separator

Contact Us | Privacy Policy | Disclaimer | Legal Notice
Copyright © 2001-2014 MetalTabs.com. All Rights Reserved.