top separator

Home

Forum

What's New

Submit a Tab

FAQ

Links

Contact Us

Link to Us

MetalTabs.com logo

Bands

0-9

A

B

C

D

E

F

G

H

I

J

K

L

M

N

O

P

Q

R

S

T

U

V

W

X

Y

Z

Search

What

Where
 

The Crown - "Black Lightning" Guitar Tab

Plain Text Version
More The Crown Tabs

Hits: 6212
Rated: 2.92 out of 5 (12 votes)
Updated: 2002-07-28 14:29:19

 

By:

Darkenelf

sendpm.gif

email.gif

Important note
We did our best to reach The Crown and ask for their permission to publish this tab. Unfortunately they did not respond to our requests or we could not find a way to contact them. This tab is available online until The Crown tells us to take it down.


#----------------------------------PLEASE NOTE---------------------------------#
#This file is the author's own work and represents their interpretation of the #
#song. You may only use this file for private study, scholarship, or research. #
#Unless specified otherwise, this is NOT an official tab from the band members.#
#------------------------------------------------------------------------------#

  Visit MetalTabs.com for more metal tablature
  
Band: The Crown
Album: Hell is Here
Song: Black Lightning
Tabbed by: Martijn Wietsma (Darkenelf)
Email: dalvanian@yahoo.com

Tune down to D
. = palm mute
/ = forward slide
\ = backward slide
p = pick
h = hammer

Riff A
e|----------------------------------------------------------|
B|----------------------------------------------------------|
G|----------------------------------------------------------|
D|----------------------------------------------------------|
A|-8/7------------------8/7--7/10--8\7----------------------|
E|-6/5--5-5--5-5-5-5-5--6/5--5/-8--6\5---5-5--5-5-5-5-5-----|
        . .  . . . . .                   . .  . . . . .

e|----------------------------------------------------------|
B|----------------------------------------------------------|
G|----------------------------------------------------------|
D|----------------------------------------------------------|
A|-8/7------------------8/7--7/10--8\7----------------------|
E|-6/5--5-5--5-5-5-5-5--6/5--5/-8--6\5---5-5--5-5-5-5-5-----|
        . .  . . . . .                   . .  . . . . .

Riff B
e|----------------------------------------------------------|
B|----------------------------------------------------------|
G|----------------------------------------------------------|
D|----------------------------------------------------------|
A|-8/7---8/7---8p7h8h10h11-p10------------------------------|
E|-6/5---6/5---6p5h6h-8h-9-p-8------------------------------|
                                                 repeat 4x

Riff A
e|----------------------------------------------------------|
B|----------------------------------------------------------|
G|----------------------------------------------------------|
D|----------------------------------------------------------|
A|-8/7------------------8/7--7/10--8\7----------------------|
E|-6/5--5-5--5-5-5-5-5--6/5--5/-8--6\5---5-5--5-5-5-5-5-----|
        . .  . . . . .                   . .  . . . . .

e|----------------------------------------------------------|
B|----------------------------------------------------------|
G|----------------------------------------------------------|
D|----------------------------------------------------------|
A|-8/7------------------8/7--7/10--8\7----------------------|
E|-6/5--5-5--5-5-5-5-5--6/5--5/-8--6\5---5-5--5-5-5-5-5-----|
        . .  . . . . .                   . .  . . . . .

Riff B
e|----------------------------------------------------------|
B|----------------------------------------------------------|
G|----------------------------------------------------------|
D|----------------------------------------------------------|
A|-8/7---8/7---8p7h8h10h11-p10------------------------------|
E|-6/5---6/5---6p5h6h-8h-9-p-8------------------------------|
                                                 repeat 4x
Riff C
e|-----------------------6-5--3-5---6-5--6-8----------------|
B|-6-5--3-5---6-5--6-8--------------------------------------|
G|----------------------------------------------------------|
D|----------------------------------------------------------|
A|----------------------------------------------------------|
E|----------------------------------------------------------|

e|-----------------------6-5--3-5---6-5--6-8----------------|
B|-6-5--3-5---6-5--6-8--------------------------------------|
G|----------------------------------------------------------|
D|----------------------------------------------------------|
A|----------------------------------------------------------|
E|----------------------------------------------------------|

Riff B
e|----------------------------------------------------------|
B|----------------------------------------------------------|
G|----------------------------------------------------------|
D|----------------------------------------------------------|
A|-8/7---8/7---8p7h8h10h11-p10------------------------------|
E|-6/5---6/5---6p5h6h-8h-9-p-8------------------------------|

Riff D
e|----------------------------------------------------------|
B|----------------------------------------------------------|
G|----------------------------------------------------------|
D|-----------------------------------------11--10-----------|
A|-8\7--8\7---8-8-8--10-10---8-8-8--11-11---9---8-----------|
E|-6\5--6\5---6-6-6---8--8---6-6-6---9--9-------------------|
              . . .          . . .

Riff A
e|----------------------------------------------------------|
B|----------------------------------------------------------|
G|----------------------------------------------------------|
D|----------------------------------------------------------|
A|-8/7------------------8/7--7/10--8\7----------------------|
E|-6/5--5-5--5-5-5-5-5--6/5--5/-8--6\5---5-5--5-5-5-5-5-----|
        . .  . . . . .                   . .  . . . . .

e|----------------------------------------------------------|
B|----------------------------------------------------------|
G|----------------------------------------------------------|
D|----------------------------------------------------------|
A|-8/7------------------8/7--7/10--8\7----------------------|
E|-6/5--5-5--5-5-5-5-5--6/5--5/-8--6\5---5-5--5-5-5-5-5-----|
        . .  . . . . .                   . .  . . . . .

Riff B
e|----------------------------------------------------------|
B|----------------------------------------------------------|
G|----------------------------------------------------------|
D|----------------------------------------------------------|
A|-8/7---8/7---8p7h8h10h11-p10------------------------------|
E|-6/5---6/5---6p5h6h-8h-9-p-8------------------------------|
                                                 repeat 4x

Riff C
e|-----------------------6-5--3-5---6-5--6-8----------------|
B|-6-5--3-5---6-5--6-8--------------------------------------|
G|----------------------------------------------------------|
D|----------------------------------------------------------|
A|----------------------------------------------------------|
E|----------------------------------------------------------|

e|-----------------------6-5--3-5---6-5--6-8----------------|
B|-6-5--3-5---6-5--6-8--------------------------------------|
G|----------------------------------------------------------|
D|----------------------------------------------------------|
A|----------------------------------------------------------|
E|----------------------------------------------------------|

Riff E (clean)
e|---5----7----8-----5-----7----8----5---7---8-10-8-7-------|
B|-5----5----5-----5----5----5-----5---5---5----------------|
G|----------------------------------------------------------|
D|----------------------------------------------------------|
A|----------------------------------------------------------|
E|----------------------------------------------------------|

e|---5----7----8-----5-----7----8----5---7---8-10-8-7-------|
B|-5----5----5-----5----5----5-----5---5---5----------------|
G|----------------------------------------------------------|
D|----------------------------------------------------------|
A|----------------------------------------------------------|
E|----------------------------------------------------------|

Riff F
e|----------------------------------------------------------|
B|----------------------------------------------------------|
G|----------------------------------------------------------|
D|----------------------------------------------------------|
A|-8---------8---------8---------8--------------------------|
E|-6--6-6-6--6--6-6-6--6--6-6-6--6--6-6-6-------------------|
      . . .     . . .     . . .     . . .

Riff G
e|----------------------------------------------------------|
B|----------------------------------------------------------|
G|----------------------------------------------------------|
D|-4--------4-----------------------------------------------|
A|-2-2-2-2--2--2-2-2--4---------6---------------------------|
E|--------------------2--2-2-2--4---------------------------|
     . . .     . . .     . . .

Riff F
e|----------------------------------------------------------|
B|----------------------------------------------------------|
G|----------------------------------------------------------|
D|----------------------------------------------------------|
A|-8---------8---------8---------8--------------------------|
E|-6--6-6-6--6--6-6-6--6--6-6-6--6--6-6-6-------------------|
      . . .     . . .     . . .     . . .
Riff H
e|----------------------------------------------------------|
B|----------------------------------------------------------|
G|----------------------------------------------------------|
D|-------------------------------4--------------------------|
A|-4---------4---------6---------2--------------------------|
E|-2--2-2-2--2--2-2-2--4--4-4-4-----------------------------|
      . . .     . . .     . . .

Riff I (under solo)
e|----------------------------------------------------------|
B|----------------------------------------------------------|
G|----------------------------------------------------------|
D|----------------------------------------------------------|
A|-8--------------8--------------8-------------8------------|
E|-6--6-6-6-(5/)--6--6-6-6-(5/)--6--6-6-6-(5/)-6--6-6-6-(5/)|
      . . .          . . .          . . .         . . .

e|----------------------------------------------------------|
B|----------------------------------------------------------|
G|----------------------------------------------------------|
D|----------------------------------------------------------|
A|-9--------------9--------------9---------11-11-11/--12~---|
E|-7--7-7-7-(6/)--7--7-7-7-(6/)--7--7-7-7---9--9--9/--14~---|
      . . .          . . .          . . .   .  .  .

Riff E (clean)
e|---5----7----8-----5-----7----8----5---7---8-10-8-7-------|
B|-5----5----5-----5----5----5-----5---5---5----------------|
G|----------------------------------------------------------|
D|----------------------------------------------------------|
A|----------------------------------------------------------|
E|----------------------------------------------------------|

e|---5----7----8-----5-----7----8----5---7---8-10-8-7-------|
B|-5----5----5-----5----5----5-----5---5---5----------------|
G|----------------------------------------------------------|
D|----------------------------------------------------------|
A|----------------------------------------------------------|
E|----------------------------------------------------------|

Riff F
e|----------------------------------------------------------|
B|----------------------------------------------------------|
G|----------------------------------------------------------|
D|----------------------------------------------------------|
A|-8---------8---------8---------8--------------------------|
E|-6--6-6-6--6--6-6-6--6--6-6-6--6--6-6-6-------------------|
      . . .     . . .     . . .     . . .

Riff G
e|----------------------------------------------------------|
B|----------------------------------------------------------|
G|----------------------------------------------------------|
D|-4--------4-----------------------------------------------|
A|-2-2-2-2--2--2-2-2--4---------6---------------------------|
E|--------------------2--2-2-2--4---------------------------|
     . . .     . . .     . . .

Riff F
e|----------------------------------------------------------|
B|----------------------------------------------------------|
G|----------------------------------------------------------|
D|----------------------------------------------------------|
A|-8---------8---------8---------8--------------------------|
E|-6--6-6-6--6--6-6-6--6--6-6-6--6--6-6-6-------------------|
      . . .     . . .     . . .     . . .
Riff H
e|----------------------------------------------------------|
B|----------------------------------------------------------|
G|----------------------------------------------------------|
D|-------------------------------4--------------------------|
A|-4---------4---------6---------2--------------------------|
E|-2--2-2-2--2--2-2-2--4--4-4-4-----------------------------|
      . . .     . . .     . . .
Riff J
e|----------------------------------------------------------|
B|----------------------------------------------------------|
G|----------------------------------------------------------|
D|----------------------------------------------------------|
A|-8-7---8-6---6-8------------------------------------------|
E|-6-5---6-4---4-6---6-6-6--6-6-6--6------------------------|
                     . . .  . . .
e|----------------------------------------------------------|
B|----------------------------------------------------------|
G|----------------------------------------------------------|
D|----------------------------------------------------------|
A|-8-7---8-6---6-8------------------------------------------|
E|-6-5---6-4---4-6---6-6-6--6-6-6--6------------------------|
                     . . .  . . .

Riff C
e|-----------------------6-5--3-5---6-5--6-8----------------|
B|-6-5--3-5---6-5--6-8--------------------------------------|
G|----------------------------------------------------------|
D|----------------------------------------------------------|
A|----------------------------------------------------------|
E|----------------------------------------------------------|

e|-----------------------6-5--3-5---6-5--6-8----------------|
B|-6-5--3-5---6-5--6-8--------------------------------------|
G|----------------------------------------------------------|
D|----------------------------------------------------------|
A|----------------------------------------------------------|
E|----------------------------------------------------------|

e|-----------------------6-5--3-5---6-5--6-8----------------|
B|-6-5--3-5---6-5--6-8--------------------------------------|
G|----------------------------------------------------------|
D|----------------------------------------------------------|
A|----------------------------------------------------------|
E|----------------------------------------------------------|

e|-----------------------6-5--3-5---6-5--6-8----------------|
B|-6-5--3-5---6-5--6-8--------------------------------------|
G|----------------------------------------------------------|
D|----------------------------------------------------------|
A|----------------------------------------------------------|
E|----------------------------------------------------------|

  Visit MetalTabs.com for more metal tablature

bottom separator

Contact Us | Privacy Policy | Disclaimer | Legal Notice
Copyright © 2001-2014 MetalTabs.com. All Rights Reserved.