top separator

Home

Forum

What's New

Submit a Tab

FAQ

Links

Contact Us

Link to Us

MuSpy.com

MetalTabs.com logo

Bands

0-9

A

B

C

D

E

F

G

H

I

J

K

L

M

N

O

P

Q

R

S

T

U

V

W

X

Y

Z

Search

What

Where
 

Waylander - "King of the Fairies" Guitar Tab

Plain Text Version
More Waylander Tabs

Hits: 9710
Rated: 3.67 out of 5 (3 votes)
Updated: 2002-07-28 14:28:10

 

By:

Darkenelf

sendpm.gif

email.gif

Important note
This tab is available online because we obtained explicit permission from Waylander or their label.


#----------------------------------PLEASE NOTE---------------------------------#
#This file is the author's own work and represents their interpretation of the #
#song. You may only use this file for private study, scholarship, or research. #
#Unless specified otherwise, this is NOT an official tab from the band members.#
#------------------------------------------------------------------------------#

  Visit MetalTabs.com for more metal tablature
  
Band: Waylander
Album: Reawakening Pride Once Lost
Song: King of the Faeries
Tabbed by: Martijn Wietsma (Darkenelf)
email: dalvanian@yahoo.com

Tune down to D

Intro:
riff A:

e|-------------------------------------------------------|
B|-------------------------------------------------------|
G|-------------------------------------------------------|
D|-------------------------------------------------------|
A|-7-7--7---5/7-7--7---5/7-7--7---5/7-7--7---------------|
E|-5-5--5---3/5-5--5---3/5-5--5---3/5-5--5---------------|
   . .        . .        . .        . .

e|-------------------------------------------------------|
B|-------------------------------------------------------|
G|-------------------------------------------------------|
D|-------------------------------------------------------|
A|-7-7--7---5/7-7--7---5/7-7--7---5/7-7--7---------------|
E|-5-5--5---3/5-5--5---3/5-5--5---3/5-5--5---------------|
   . .        . .        . .        . .

e|-------------------------------------------------------|
B|-------------------------------------------------------|
G|-------------------------------------------------------|
D|-------------------------------------------------------|
A|-7-7--7---5/7-7--7---5/7-7--7---5/7-7--7---------------|
E|-5-5--5---3/5-5--5---3/5-5--5---3/5-5--5---------------|
   . .        . .        . .        . .

e|-------------------------------------------------------|
B|-------------------------------------------------------|
G|-------------------------------------------------------|
D|-------------------------------------------------------|
A|-7-7--7---5/7-7--7---5/7-7--7---5/7-7--7---------------|
E|-5-5--5---3/5-5--5---3/5-5--5---3/5-5--5---------------|
   . .        . .        . .        . .

Riff B
e|-------------------------------------------------------|
B|-------------------------------------------------------|
G|--------------3-5-6-5-3--------------------------------|
D|-3--5-6--5-6-------------6-5-3--6----------------------|
A|-------------------------------------------------------|
E|-------------------------------------------------------|

e|-------------------------------------------------------|
B|----------6--------------------------------------------|
G|-5-----------------------------------------------------|
D|----3-3------3-3---5-6p5-3\1-1-------------------------|
A|-------------------------------------------------------|
E|-------------------------------------------------------|

Riff C
e|-------------------------------------------------------|
B|-------------------------4-----------------------------|
G|--------------3h5p3h5h6-------5h6p5-3h5-6p5-3----------|
D|-3--5-6--5-6----------------------------------6-3--3-3-|
A|-------------------------------------------------------|
E|-------------------------------------------------------|

Riff B
e|-------------------------------------------------------|
B|-------------------------------------------------------|
G|--------------3-5-6-5-3--------------------------------|
D|-3--5-6--5-6-------------6-5-3--6----------------------|
A|-------------------------------------------------------|
E|-------------------------------------------------------|

e|-------------------------------------------------------|
B|----------6--------------------------------------------|
G|-5-----------------------------------------------------|
D|----3-3------3-3---5-6p5-3\1-1-------------------------|
A|-------------------------------------------------------|
E|-------------------------------------------------------|

Riff C
e|-------------------------------------------------------|
B|-------------------------4-----------------------------|
G|--------------3h5p3h5h6-------5h6p5-3h5-6p5-3----------|
D|-3--5-6--5-6----------------------------------6-3--3-3-|
A|-------------------------------------------------------|
E|-------------------------------------------------------|

Riff D
e|-----------------------4h6h7p6p4-----------------------|
B|-4-4-----4--4h6h7p6h7-------------7p6--4---------------|
G|------6-----------------------------------6------------|
D|-------------------------------------------------------|
A|-------------------------------------------------------|
E|-------------------------------------------------------|

e|-------------------------------------------------------|
B|-4-----------------------------------------------------|
G|----3-3---3h6--5p3-3-----------------------------------|
D|-------------------------------------------------------|
A|-------------------------------------------------------|
E|-------------------------------------------------------|

e|-----------------------4h6h7p6p4-----------------------|
B|-4-4-----4--4h6h7p6h7-------------7p6--4---------------|
G|------6-----------------------------------6------------|
D|-------------------------------------------------------|
A|-------------------------------------------------------|
E|-------------------------------------------------------|

e|-------------------------------------------------------|
B|------------4h6--6-6-6-----4-6-7--4-6--2-4-2--0-2-4----|
G|-3h5h6p5h6---------------------------------------------|
D|-------------------------------------------------------|
A|-------------------------------------------------------|
E|-------------------------------------------------------|

this part is quite hard to hear, so if anyone could help me
out with this riff, it would be great, here is a try from me,
it doesn't sounds good, but whatever.
e|-------------------------------------------------------|
B|-------------------------------------------------------|
G|-4-6-4--2h4--6-4---------6-4---------------------------|
D|------------------6p5h6-------6-5--3-3-----------------|
A|-------------------------------------------------------|
E|-------------------------------------------------------|

Riff D
e|-----------------------4h6h7p6p4-----------------------|
B|-4-4-----4--4h6h7p6h7-------------7p6--4---------------|
G|------6-----------------------------------6------------|
D|-------------------------------------------------------|
A|-------------------------------------------------------|
E|-------------------------------------------------------|

Riff E
e|-------------------------------------------------------|
B|-------------------------------------------------------|
G|-------------------------------------------------------|
D|--------------------2-2-2-2------------2---------------|
A|-4-4-4-4---4-4-4-4--2-2-2-2---4-4-4-4--2--4-4-4-4------|
E|-2-2-2-2---2-2-2-2--0-0-0-0---2-2-2-2--0--2-2-2-2------|

Riff E
e|-------------------------------------------------------|
B|-------------------------------------------------------|
G|-------------------------------------------------------|
D|--------------------2-2-2-2------------2---------------|
A|-4-4-4-4---4-4-4-4--2-2-2-2---4-4-4-4--2--4-4-4-4------|
E|-2-2-2-2---2-2-2-2--0-0-0-0---2-2-2-2--0--2-2-2-2------|

Riff D (flute solo)
e|-----------------------4h6h7p6p4-----------------------|
B|-4-4-----4--4h6h7p6h7-------------7p6--4---------------|
G|------6-----------------------------------6------------|
D|-------------------------------------------------------|
A|-------------------------------------------------------|
E|-------------------------------------------------------|

e|-------------------------------------------------------|
B|-4-----------------------------------------------------|
G|----3-3---3h6--5p3-3-----------------------------------|
D|-------------------------------------------------------|
A|-------------------------------------------------------|
E|-------------------------------------------------------|

e|-----------------------4h6h7p6p4-----------------------|
B|-4-4-----4--4h6h7p6h7-------------7p6--4---------------|
G|------6-----------------------------------6------------|
D|-------------------------------------------------------|
A|-------------------------------------------------------|
E|-------------------------------------------------------|

e|-------------------------------------------------------|
B|------------4h6--6-6-6-----4-6-7--4-6--2-4-2--0-2-4----|
G|-3h5h6p5h6---------------------------------------------|
D|-------------------------------------------------------|
A|-------------------------------------------------------|
E|-------------------------------------------------------|

e|-------------------------------------------------------|
B|-------------------------------------------------------|
G|-4-6-4--2h4--6-4---------6-4---------------------------|
D|------------------6p5h6-------6-5--3-3-----------------|
A|-------------------------------------------------------|
E|-------------------------------------------------------|

Riff F
e|-------------------------------------------------------|
B|-------------------------------------------------------|
G|-------------------------------------------------------|
D|----------------------2-----------2------2-2-----------|
A|-4-4-4-4--4--4-4-4-4--2--4-4-4-4--2--4-4-2-2--4-4-4-4--|
E|-2-2-2-2--2--2-2-2-2--0--2-2-2-2--0--2-2-0-0--2-2-2-2--|

e|-------------------------------------------------------|
B|-------------------------------------------------------|
G|-------------------------------------------------------|
D|-2-----------2-----------2-----------------------------|
A|-2--4-4-4-4--2--4-4-4-4--2--4-4-4-4--5-5-5-5-----------|
E|-0--2-2-2-2--0--2-2-2-2--0--2-2-2-2--3-3-3-3-----------|
repeat part F till you 4:38 on cd, repeat about 20 times i think.

Riff B (in flute)
e|-------------------------------------------------------|
B|-------------------------------------------------------|
G|--------------3-5-6-5-3--------------------------------|
D|-3--5-6--5-6-------------6-5-3--6----------------------|
A|-------------------------------------------------------|
E|-------------------------------------------------------|

e|-------------------------------------------------------|
B|----------6--------------------------------------------|
G|-5-----------------------------------------------------|
D|----3-3------3-3---5-6p5-3\1-1-------------------------|
A|-------------------------------------------------------|
E|-------------------------------------------------------|

Riff B (guitar part enters again)
e|-------------------------------------------------------|
B|-------------------------------------------------------|
G|--------------3-5-6-5-3--------------------------------|
D|-3--5-6--5-6-------------6-5-3--6----------------------|
A|-------------------------------------------------------|
E|-------------------------------------------------------|

e|-------------------------------------------------------|
B|----------6--------------------------------------------|
G|-5-----------------------------------------------------|
D|----3-3------3-3---5-6p5-3\1-1-------------------------|
A|-------------------------------------------------------|
E|-------------------------------------------------------|

Riff C
e|-------------------------------------------------------|
B|-------------------------4-----------------------------|
G|--------------3h5p3h5h6-------5h6p5-3h5-6p5-3----------|
D|-3--5-6--5-6----------------------------------6-3--3-3-|
A|-------------------------------------------------------|
E|-------------------------------------------------------|

Riff B
e|-------------------------------------------------------|
B|-------------------------------------------------------|
G|--------------3-5-6-5-3--------------------------------|
D|-3--5-6--5-6-------------6-5-3--6----------------------|
A|-------------------------------------------------------|
E|-------------------------------------------------------|

e|-------------------------------------------------------|
B|----------6--------------------------------------------|
G|-5-----------------------------------------------------|
D|----3-3------3-3---5-6p5-3\1-1-------------------------|
A|-------------------------------------------------------|
E|-------------------------------------------------------|

Riff C
e|-------------------------------------------------------|
B|-------------------------4-----------------------------|
G|--------------3h5p3h5h6-------5h6p5-3h5-6p5-3----------|
D|-3--5-6--5-6----------------------------------6-3--3-3-|
A|-------------------------------------------------------|
E|-------------------------------------------------------|

Riff D (flute solo)
e|-----------------------4h6h7p6p4-----------------------|
B|-4-4-----4--4h6h7p6h7-------------7p6--4---------------|
G|------6-----------------------------------6------------|
D|-------------------------------------------------------|
A|-------------------------------------------------------|
E|-------------------------------------------------------|

e|-------------------------------------------------------|
B|-4-----------------------------------------------------|
G|----3-3---3h6--5p3-3-----------------------------------|
D|-------------------------------------------------------|
A|-------------------------------------------------------|
E|-------------------------------------------------------|

e|-----------------------4h6h7p6p4-----------------------|
B|-4-4-----4--4h6h7p6h7-------------7p6--4---------------|
G|------6-----------------------------------6------------|
D|-------------------------------------------------------|
A|-------------------------------------------------------|
E|-------------------------------------------------------|

e|-------------------------------------------------------|
B|------------4h6--6-6-6-----4-6-7--4-6--2-4-2--0-2-4----|
G|-3h5h6p5h6---------------------------------------------|
D|-------------------------------------------------------|
A|-------------------------------------------------------|
E|-------------------------------------------------------|

e|-------------------------------------------------------|
B|-------------------------------------------------------|
G|-4-6-4--2h4--6-4---------6-4---------------------------|
D|------------------6p5h6-------6-5--3-3-----------------|
A|-------------------------------------------------------|
E|-------------------------------------------------------|

Riff C
e|-------------------------------------------------------|
B|-------------------------4-----------------------------|
G|--------------3h5p3h5h6-------5h6p5-3h5-6p5-3----------|
D|-3--5-6--5-6----------------------------------6-3--3-3-|
A|-------------------------------------------------------|
E|-------------------------------------------------------|

e|-------------------------------------------------------|
B|-------------------------------------------------------|
G|-------------------------------------------------------|
D|-------------------------------------------------------|
A|-7-7--7---5/7-7--7---5/7-7--7---5/7-7--7---------------|
E|-5-5--5---3/5-5--5---3/5-5--5---3/5-5--5---------------|
   . .        . .        . .        . .

e|-------------------------------------------------------|
B|-------------------------------------------------------|
G|-------------------------------------------------------|
D|-------------------------------------------------------|
A|-7-7--7---5/7-7--7---5/7-7--7---5/7-7--7---------------|
E|-5-5--5---3/5-5--5---3/5-5--5---3/5-5--5---------------|
   . .        . .        . .        . .

e|-------------------------------------------------------|
B|-------------------------------------------------------|
G|-------------------------------------------------------|
D|-------------------------------------------------------|
A|-7-7--7---5/7-7--7---5/7-7--7---5/7-7--7---------------|
E|-5-5--5---3/5-5--5---3/5-5--5---3/5-5--5---------------|
   . .        . .        . .        . .

e|-------------------------------------------------------|
B|-------------------------------------------------------|
G|-------------------------------------------------------|
D|-------------------------------------------------------|
A|-7-7--7---5/7-7--7---5/7-7--7---5/7-7--7---------------|
E|-5-5--5---3/5-5--5---3/5-5--5---3/5-5--5---------------|
   . .        . .        . .        . .

e|-------------------------------------------------------|
B|-------------------------------------------------------|
G|-------------------------------------------------------|
D|-------------------------------------------------------|
A|-7-7--7---5/7-7--7---5/7-7--7---5/7-7--7---------------|
E|-5-5--5---3/5-5--5---3/5-5--5---3/5-5--5---------------|
   . .        . .        . .        . .

e|-------------------------------------------------------|
B|-------------------------------------------------------|
G|-------------------------------------------------------|
D|-------------------------------------------------------|
A|-7-7--7---5/7-7--7---5/7-7--7---5/7-7--7---------------|
E|-5-5--5---3/5-5--5---3/5-5--5---3/5-5--5---------------|
   . .        . .        . .        . .

e|-------------------------------------------------------|
B|-------------------------------------------------------|
G|-------------------------------------------------------|
D|-------------------------------------------------------|
A|-7-7--7---5/7-7--7---5/7-7--7---5/7-7--7---------------|
E|-5-5--5---3/5-5--5---3/5-5--5---3/5-5--5---------------|
   . .        . .        . .        . .

e|-------------------------------------------------------|
B|-------------------------------------------------------|
G|-------------------------------------------------------|
D|-------------------------------------------------------|
A|-7-7--7---5/7-7--7---5/7-7--7---5/7-7--7---------------|
E|-5-5--5---3/5-5--5---3/5-5--5---3/5-5--5---------------|
   . .        . .        . .        . .

  Visit MetalTabs.com for more metal tablature

bottom separator

Contact Us | Privacy Policy | Disclaimer | Legal Notice
Copyright © 2001-2014 MetalTabs.com. All Rights Reserved.