top separator

Home

Forum

FAQ

Contact Us

Link to Us

MetalTabs.com logo

Bands

0-9

A

B

C

D

E

F

G

H

I

J

K

L

M

N

O

P

Q

R

S

T

U

V

W

X

Y

Z

Marduk - "Jesus ChristůSodomized" Guitar Tab

Plain Text Version
More Marduk Tabs

Hits: 6770
Rated: 3.43 out of 5 (7 votes)
Updated: 2002-07-28 13:48:36

By:

Vortigern


#----------------------------------PLEASE NOTE---------------------------------#
#This file is the author's own work and represents their interpretation of the #
#song. You may only use this file for private study, scholarship, or research. #
#Unless specified otherwise, this is NOT an official tab from the band members.#
#------------------------------------------------------------------------------#

  Visit MetalTabs.com for more metal tablature
  
Marduk
'Jesus Christů Sodomized'

from the album 'La Grande Danse Macabre'
(Blooddawn Productions)

tune : normal E
h : hammer-on
p : pull-off
*: palm-muting

Riff 1 (intro)
|---------------------------|
|---------------------------|
|---------------------------|
|-7-7-7-7-7-7---------------|
|-5-5-5-5-5-5---------------|
|-0-0-0-0-0-0---------------|

Riff 2, tremolo picked, nearly everything is from here.
|---------------------------|
|---------------------------|
|---------------------------|
|-7-1012-107-1012-107-------|
|-5-8-10-8-5-8-10-8-5-------|
|---------------------------|

Riff 3
|---------------------------|
|---------------------------|
|---------------------------|
|-7-2-3-8-7-----------------|
|-5-0-1-6-5-----------------|
|---------------------------|

Riff 3.5
|---------------------------|
|---------------------------|
|---------------------------|
|-3-4-2---------------------|
|-1-2-0---------------------|
|---------------------------|

Riff 4
|---------------------------|
|---------------------------|
|---------------------------|
|---------323---------32020-|
|-3-----------3-----2-------|
|-1-343-1-----1-343-0-------|

Riff 4.5
|---------------------------|
|---------------------------|
|---------------------------|
|-2p0h3p0-------------------|
|---------------------------|
|---------------------------|

Riff 5
|---------------------------|
|---------------------------|
|-4------555-222------------|
|-4------555-000------------|
|-2-2222-333-000------------|
|---------------------------|
    ****
Riff 6
|---------------------------|
|---------------------------|
|---------------------------|
|-0-1-3-0-1-0---------------|
|-------------3-2-----------|
|---------------------------|

for comment, corrections, whatever :
guy@freemail.hammerfall.net

  Visit MetalTabs.com for more metal tablature

bottom separator

Contact Us | Privacy Policy | Disclaimer
Copyright © 2001-2014 MetalTabs.com. All Rights Reserved.