top separator

Home

Forum

What's New

Submit a Tab

FAQ

Links

Contact Us

Link to Us

MetalTabs.com logo

Bands

0-9

A

B

C

D

E

F

G

H

I

J

K

L

M

N

O

P

Q

R

S

T

U

V

W

X

Y

Z

Search

What

Where
 

Destroyer 666 - "Black City - Black Fire" Guitar Tab

Plain Text Version
More Destroyer 666 Tabs

Hits: 6734
Rated: 2.25 out of 5 (4 votes)
Updated: 2002-07-28 13:47:35

 

By:

Vortigern

sendpm.gif

email.gif

Important note
This tab is available online because we obtained explicit permission from Destroyer 666 or their label.


#----------------------------------PLEASE NOTE---------------------------------#
#This file is the author's own work and represents their interpretation of the #
#song. You may only use this file for private study, scholarship, or research. #
#Unless specified otherwise, this is NOT an official tab from the band members.#
#------------------------------------------------------------------------------#

  Visit MetalTabs.com for more metal tablature
  
Deströyer 666
'Black City'

from their album 'Cold Steel For An Iron Age'
(2002, Season Of Mist)

tune: normal E
h: hammer-on
p: pull-off

Riff 1, tremolo picked, but most of this song is.
|-------------------------------|
|-------------------------------|
|-------------------------------|
|---6/5/6---6/5/6-9---989-989-6-|
|---4/3/4---4/3/4-7---767-767-4-|
|-0-------0---------0-----------|

Riff 2
|---------------------------|
|---------------------------|
|---------------------------|
|---------------------------|
|-22-44-55-22-44-55-545-----|
|-00-22-33-00-22-33-323-----|

Riff 3
|---------------------------|
|---------------------------|
|---------------------------|
|-656---656-----------------|
|-434-0-434-----------------|
|-----------4---------------|

Riff 4, fast tremolo-picked
|---------------------------------------------|
|---------------------------------------------|
|-3---3---4343---3--434-2--2---3232---2---323-|
|---------------------------------------------|
|---0---0------0---0-----0---0------0---0-----|
|---------------------------------------------|

|---------------------------|
|---------------------------|
|---------------------------|
|-2-3-6-5-------------------|
|-0-1-4-3-------------------|
|---------------------------|

Riff 5
|---------------------------|
|---------------------------|
|---------------------------|
|-3--2-3-6-5----------------|
|-1--0-1-4-3----------------|
|---------------------------|

Riff 6
|---------------------------|
|---------------------------|
|---------------------------|
|-989-989-------------------|
|-767-767-------------------|
|---------------------------|

Riff 7a
|---------------------------|
|---------------------------|
|---------------------------|
|-77-88-77-1010-------------|
|-55-66-55-8--8-------------|
|---------------------------|

Riff 7b
|---------------------------|
|---------------------------|
|-5h6p5-6h7p6-7h8p7-8h9p8---|
|---------------------------|
|---------------------------|
|---------------------------|


for comments, contact, corrections : guy@freemail.hammerfall.net

  Visit MetalTabs.com for more metal tablature

bottom separator

Contact Us | Privacy Policy | Disclaimer | Legal Notice
Copyright © 2001-2014 MetalTabs.com. All Rights Reserved.