top separator

Home

Forum

What's New

Submit a Tab

FAQ

Links

Contact Us

Link to Us

MuSpy.com

MetalTabs.com logo

Bands

0-9

A

B

C

D

E

F

G

H

I

J

K

L

M

N

O

P

Q

R

S

T

U

V

W

X

Y

Z

Search

What

Where
 

At The Gates - "Cold" Guitar Tab

Plain Text Version
More At The Gates Tabs

Hits: 13648
Rated: 3.22 out of 5 (9 votes)
Updated: 2002-07-28 13:37:38

 

Important note
This tab is available online because we obtained explicit permission from At The Gates or their label.


#----------------------------------PLEASE NOTE---------------------------------#
#This file is the author's own work and represents their interpretation of the #
#song. You may only use this file for private study, scholarship, or research. #
#Unless specified otherwise, this is NOT an official tab from the band members.#
#------------------------------------------------------------------------------#

  Visit MetalTabs.com for more metal tablature
  
At the Gates
Slaughter of the Soul
Cold (1st half of the solo)

(c) Earache Records 1995
Version 1.0 - Monday 6/10/2002

Transcribed by: D. Thompson
Email: Rooster@the-police.com

. - palm mute
/ - slide up to
\ - slid down to
h - hammer on
p - pull-off
~ - vibrato
" - tremolo pick



high B|--12"--14"--15"--17"--14"--15"--17"--19"--20--19--(19?20?19)--|
    Gb|--------------------------------------------------------------|
     D|--------------------------------------------------------------| (1 time)
     A|--------------------------------------------------------------|
     E|--------------------------------------------------------------|
 low B|--------------------------------------------------------------|

high B|--24?(26-?)-24~~19-22-19-17-19-17-19~~------------------------|
    Gb|--------------------------------------------------------------|
     D|--------------------------------------------------------------| (guitar 1)
     A|--------------------------------------------------------------|
     E|--------------------------------------------------------------|
 low B|--------------------------------------------------------------|
      |								     |
      | 							     | (1 time)
      |								     |
high B|----------------19-22-19-17-19-17-----------------------------|
    Gb|----------------------------------19~~------------------------|
     D|--------------------------------------------------------------|
     A|--------------------------------------------------------------| (guitar 2)
     E|--------------------------------------------------------------|
 low B|--------------------------------------------------------------|



high B|--------------------------------------/15----15-14~~~---------|
    Gb|---------------12-------------------------17------------------|
     D|------------12----12h14p12-11-12-14-16------------------------| (1 time)
     A|---------14---------------------------------------------------|
     E|------14------------------------------------------------------|
 low B|12-15---------------------------------------------------------|
        .  .  .  .  .              .  .  .  .


then he plays a bunch of crazy-ness in a E natural minor figure (I know , it's
in B, but it's a E figure all the same).  All I know for sure, is that it starts
at 19 on the high B, works its way down until the riff is about to start again,
then works its way back up to full bend on 22 on the high B. if any of this is
wrong, which may be so, please email me and i'll correct it.

solo riff

high B|--------------------------------------|------------|--------|-----------|
    Gb|--------------------------------------|------------|--------|-----------|
     D|--------------------------------------|------------|-repeat-|-----------|
     A|--------------------------------------|------------|-1st----|-----------|
     E|----7p6-7~-----10p9-10~~-0-0-10-0-9-0-|------------|-part---|-----------|
 low B|--0--------8-8------------------------|-7"-5"-7"--*|--------|-7"-3"-2"--|
         .        . .           . .    .   .

* one whole time

  Visit MetalTabs.com for more metal tablature

bottom separator

Contact Us | Privacy Policy | Disclaimer | Legal Notice
Copyright © 2001-2014 MetalTabs.com. All Rights Reserved.