top separator

Home

Forum

What's New

Submit a Tab

FAQ

Links

Contact Us

Link to Us

MuSpy.com

MetalTabs.com logo

Bands

0-9

A

B

C

D

E

F

G

H

I

J

K

L

M

N

O

P

Q

R

S

T

U

V

W

X

Y

Z

Search

What

Where
 

Hecate Enthroned - "So Called Saviour" Guitar Tab

Plain Text Version
More Hecate Enthroned Tabs

Hits: 4120
Rated: 3.60 out of 5 (5 votes)
Updated: 2002-07-28 11:29:43

 

By:

Vortigern

sendpm.gif

email.gif

Important note
This tab is available online because we obtained explicit permission from Hecate Enthroned or their label.


#----------------------------------PLEASE NOTE---------------------------------#
#This file is the author's own work and represents their interpretation of the #
#song. You may only use this file for private study, scholarship, or research. #
#Unless specified otherwise, this is NOT an official tab from the band members.#
#------------------------------------------------------------------------------#

  Visit MetalTabs.com for more metal tablature
  
So Called Savior
By : Hecate Enthroned
From their album 'Miasma' (Blackend)

Tuning: I tabbed it in D.


Riff 1 (clean)
|-----------------------------------|
|-----------------------------------|
|---4p0---4p0---4p0-2-5-2-4h5p4-2p0-|
|-----------------------------------|
|-----------------------------------|
|-0-----2-----1---------------------|

I must admit that I don't know whether this one is correct. It
comes close but I think it's still not right.

Riff 2
|---4---3---7---6-|
|---4---3---7---6-|
|---4---3---7---6-|
|-4---3---7---6---|
|-2---1---5---4---|
|-2---1---5---4---|

Riff 3
|--------------------------------|
|--------------------------------|
|--------------------------------|
|--------------------------------|
|-2--10--9-10-9-7-4/5-4/5--------|
|-0--8---7-8--7-5-2/3-2/3--------|

Riff 4
|------------|
|------------|
|------------|
|------------|
|-2-let ring-|
|-0----------|

Riff 5 lots of palm muting, repeat each bit a couple of times.
Sorry, I forgot to count!
|---------|
|---------|
|---------|
|---------|
|-7-6-2-5-|
|-5-4-0-3-|

Riff 6
Same as 5 but no palm muting.

Riff 7
|--------------------------------|
|--------------------------------|
|--------------------------------|
|--------------------------------|
|-7--6--2--3---------------------|
|-5--4--0--1---------------------|

For comments and corrections: guy@freemail.hammerfall.net

http://urcult.keenspace.com
It rules!

  Visit MetalTabs.com for more metal tablature

bottom separator

Contact Us | Privacy Policy | Disclaimer | Legal Notice
Copyright © 2001-2014 MetalTabs.com. All Rights Reserved.