top separator

Home

Forum

What's New

Submit a Tab

FAQ

Links

Contact Us

Link to Us

MetalTabs.com logo

Bands

0-9

A

B

C

D

E

F

G

H

I

J

K

L

M

N

O

P

Q

R

S

T

U

V

W

X

Y

Z

Search

What

Where
 

Pale Forest - "Spiral" Guitar Tab

Plain Text Version
More Pale Forest Tabs

Hits: 3203
Updated: 2002-07-28 11:17:50

 

Important note
We did our best to reach Pale Forest and ask for their permission to publish this tab. Unfortunately they did not respond to our requests or we could not find a way to contact them. This tab is available online until Pale Forest tells us to take it down.


#----------------------------------PLEASE NOTE---------------------------------#
#This file is the author's own work and represents their interpretation of the #
#song. You may only use this file for private study, scholarship, or research. #
#Unless specified otherwise, this is NOT an official tab from the band members.#
#------------------------------------------------------------------------------#

  Visit MetalTabs.com for more metal tablature
  
artist: pale forest
song: spiral
from "exit mould" album
tabbed by theodosis chatzistergos


notes:  it's my first attempt of tabbing something so some parts may be totally wrong
	but i think it's ok.for any comments or corrections e-mail me at
	0974406174@mycosmos.gr  		HAVE FUN


tune 1 step down [D,G,C,F,A,d]


piano [B, C#, D, B, C#, D, F#, G#, A, F#, G#, A]    <----[these are tones, not chords]
piano arranged for guitar
d|----------------------------------------|
A|----------------------------------------|
F|---6~-8-9~-6-8-9~-----------------------|
C|-------------------6~-8-6~-6-8-9~-------|
G|----------------------------------------|
D|----------------------------------------|

chorus riff
   ________________________________________________________
  /1. 2. 3.			     |4.		   \
d|-----------------------------------|----------------------|
A|-----------------------------------|----------------------|
F|---6-6-6-6-6-9-8-------------------|---6-6-6-6-6-9-8------| GTR
C|-----------------8-8-8-8-8-8-8-8---|-----------------8----|  I
G|-----------------------------------|----------------------|
D|-----------------------------------|----------------------|
 |				     |			    |
d|-----------------------------------|----------------------|
A|-----------------------------------|----------------------|
F|---9-9-9-9-9-9-9-4-4-4-4-4-4-4-4---|---9-9-9-9-9-9-9-4----| GTR
C|---9-9-9-9-9-9-9-4-4-4-4-4-4-4-4---|---9-9-9-9-9-9-9-4----|  II
G|---7-7-7-7-7-7-7-2-2-2-2-2-2-2-2---|---7-7-7-7-7-7-7-2----|
D|-----------------------------------|----------------------|

riff 1
d|----------------------------|
A|----------------------------|
F|---6-8-9-8------------------|
C|------------6-8-9-8---------|
G|----------------------------|
D|----------------------------|

riff 2
d|--------------------------------------------------------|
A|--------------------------------------------------------|
F|-8--8-8--8-8--4--4-4--4-4--6--6-6--6-6--4--4-4--4-4--6--|
C|-8--8-8--8-8--4--4-4--4-4--6--6-6--6-6--4--4-4--4-4--6--|
G|-6--6-6--6-6--2--2-2--2-2--4--4-4--4-4--2--2-2--2-2--4--|
D|--------------------------------------------------------|

riff 3
d|----------------|
A|--12-11-14-7----|
F|----------------|
C|----------------|
G|----------------|
D|----------------|

riff4
d|----------------------------------------------------------|
A|-12-11-14-9--11-12-14-16-17-19-14-12-9-17-15-14-12-11-9---|
F|----------------------------------------------------------|
C|----------------------------------------------------------|
G|----------------------------------------------------------|
D|----------------------------------------------------------|

    /riff 5
   /
  d|---------------------------------------------------------------------------------|
  A|---------------------------------------------------------------------------------|
  F|-8---8-8---8-8---8-8--8-8---4---4-4---4-4---4-4--4-4---6---6-6---6-6---6-6--6-6--|
  C|-8---8-8---8-8---8-8--8-8---4---4-4---4-4---4-4--4-4---6---6-6---6-6---6-6--6-6--|
  G|-6---6-6---6-6---6-6--6-6---2---2-2---2-2---2-2--2-2---4---4-4---4-4---4-4--4-4--|
  D|---------------------------------------------------------------------------------|
   |
  d|---------------------------------------------------------------------------------|
  A|---------------------------------------------------------------------------------|
  F|-8---8-8---8-8---8-8--8-8---7---7-7---7-7---7-7--7-7---9---9-9---9-9---9-9--9-9--|
  C|-8---8-8---8-8---8-8--8-8---7---7-7---7-7---7-7--7-7---9---9-9---9-9---9-9--9-9--|
  G|-6---6-6---6-6---6-6--6-6---5---5-5---5-5---5-5--5-5---7---7-7---7-7---7-7--7-7--|
  D|---------------------------------------------------------------------------------|
   |
  d|-------------------------------------------------------|
  A|-------------------------------------------------------|
  F|-8---8-8---8-8---8-8--8-8---9---9-9---9-9---9-9--9-9---|
  C|-8---8-8---8-8---8-8--8-8---9---9-9---9-9---9-9--9-9---|
  G|-6---6-6---6-6---6-6--6-6---7---7-7---7-7---7-7--7-7---|
  D|-------------------------------------------------------|


riff 6
d|--------------------------------------|
A|--12-11-9-14--11-12-9-11h12-14-12-----|
F|--------------------------------------|
C|--------------------------------------|
G|--------------------------------------|
D|--------------------------------------|




song structure:
		piano
		chorus riff
		piano
		piano + riff 1
		riff 2
		chorus riff
		piano
		piano + riff 1
		riff 2
		riff 3
		riff 4(gtr 1) + riff 5 (gtr 2)
		riff 2
		riff 6
		chorus riff


theodosis "teolixx" chatzistergos
0974406174@mycosmos.gr

  Visit MetalTabs.com for more metal tablature

bottom separator

Contact Us | Privacy Policy | Disclaimer | Legal Notice
Copyright © 2001-2014 MetalTabs.com. All Rights Reserved.