top separator

Home

Forum

What's New

Submit a Tab

FAQ

Links

Contact Us

Link to Us

MetalTabs.com logo

Bands

0-9

A

B

C

D

E

F

G

H

I

J

K

L

M

N

O

P

Q

R

S

T

U

V

W

X

Y

Z

Search

What

Where
 

My Dying Bride - "De Sade Soliloquay" Guitar Tab

Plain Text Version
More My Dying Bride Tabs

Hits: 4341
Rated: 5.00 out of 5 (1 vote)
Updated: 2002-07-21 13:37:16

 

Important note
This tab is available online because we obtained explicit permission from My Dying Bride or their label.


#----------------------------------PLEASE NOTE---------------------------------#
#This file is the author's own work and represents their interpretation of the #
#song. You may only use this file for private study, scholarship, or research. #
#Unless specified otherwise, this is NOT an official tab from the band members.#
#------------------------------------------------------------------------------#

  Visit MetalTabs.com for more metal tablature
  
Title: De Sade Soliloquay
Artist: My Dying Bride
Album: Symphonaire Infernus Et Spera Empyrium

Instrument: Guitar

Tabbed by: Andy Briones (House_Of_Shame@msn.com)

Tuning: 1 1/2 Steps Down (Db Gb Cb Fb Ab Db)

Really simple song. I just haven't figure out that little solo part.
Just listen to the song to get the timing.

Riff 1
Db|----------------------------||
Ab|----------------------------||
Fb|----------------------------||
Cb|-----3---3-------4---3---3--||
Gb|--2--1---1----2--2---1---1--||
Db|--0--1---1----0--2---1---1--||

Riff 2
Db|--------------------------------||
Ab|--------------------------------||
Fb|--------------------------------||
Cb|-----3---3-------4---3-------3--||
Gb|--2--1---1----2--2---1-pause-1--||
Db|--0--1---1----0--2---1-------1--||

Riff 3
Db|----------------------------||
Ab|----------------------------||
Fb|----------------------------||
Cb|------3----------4---3---3--||
Gb|--2---1-------2--2---1---1--||
Db|--0---1---1"--0--2---1---1--||

Riff 4
Db|------||
Ab|------||
Fb|------||
Cb|------||
Gb|------||
Db|--0"--||

Riff 5
Db|------------------------------------------------------||
Ab|------------------------------------------------------||
Fb|------------------------------------------------------||
Cb|------------------------------------------------------||
Gb|--3---3-3--3/5--5--5/6--6\4--4-4-4--4/5--5--5\4--4\3--||
Db|--1---1-1--1/3--3--3/4--4\2--2-2-2--2/3--3--3\2--2\1--||
   pm    . .       .            . . .       .

Riff 5a
Db|------------------------------------------------------||
Ab|------------------------------------------------------||
Fb|------------------------------------------------------||
Cb|------------------------------------------------------||
Gb|--3-3-3-3--3/5--5--5/6--6\4--4-4-4--4/5--5--5\4--4\3--||
Db|--1-1-1-1--1/3--3--3/4--4\2--2-2-2--2/3--3--3\2--2\1--||
  pm . . . .       .            . . .       .

Riff 6
Db|---------------------------||
Ab|---------------------------||
Fb|---------------------------||
Cb|---------------------------||
Gb|--5-5-5-2-2-2-5-5-5-2-2-2--||
Db|--3-3-3-0-0-0-3-3-3-0-0-0--||
  pm . . . . . . . . . . . .

Riff 7
Db|------------------------------------------||
Ab|------------------------------------------||
Fb|------------------------------------------||
Cb|-------4-------------------4--------------||
Gb|--5----2----7----2----5----2----7-8-7--2--||
Db|--3----2----5----0----3----2----5-6-5--0--||

  Visit MetalTabs.com for more metal tablature

bottom separator

Contact Us | Privacy Policy | Disclaimer | Legal Notice
Copyright © 2001-2014 MetalTabs.com. All Rights Reserved.