top separator

Home

Forum

What's New

Submit a Tab

FAQ

Links

Contact Us

Link to Us

MuSpy.com

MetalTabs.com logo

Bands

0-9

A

B

C

D

E

F

G

H

I

J

K

L

M

N

O

P

Q

R

S

T

U

V

W

X

Y

Z

Search

What

Where
 

My Dying Bride - "Symphonaire Infernus Et Spera Empyrium" Guitar Tab

Plain Text Version
More My Dying Bride Tabs

Hits: 6379
Rated: 4.50 out of 5 (4 votes)
Updated: 2002-07-21 13:35:08

 

Important note
This tab is available online because we obtained explicit permission from My Dying Bride or their label.


#----------------------------------PLEASE NOTE---------------------------------#
#This file is the author's own work and represents their interpretation of the #
#song. You may only use this file for private study, scholarship, or research. #
#Unless specified otherwise, this is NOT an official tab from the band members.#
#------------------------------------------------------------------------------#

  Visit MetalTabs.com for more metal tablature
  
Title: Symphonaire Infernus Et Spera Empyrium
Artist: My Dying Bride
Album: Symphonaire Infernus Et Spera Empyrium EP

Instrument: Guitar

Tabbed by: Andy Briones (House_Of_Shame@msn.com)

Tuning: 1 1/2 Steps Down (Db Gb Cb Fb Ab Db)

Figure out the timing by yourself. It's not that hard.

Riff 1

Db|-------------------------------------------------------------------||
Ab|-------------------------------------------------------------------||
Fb|-------------------------------------------------------------------||
Cb|--6--7--6--4------6--7--6--3------6--7--6--4------6--7--6/-9-\4--7-||
Gb|--4--5--4--2------4--5--4--1------4--5--4--2------4--5--4/-7-\2--5-||
Db|--4--5--4--2------4--5--4--1------4--5--4--2------4--5--4/-7-\2--5-||


Riff 2

Db|--------------------------------------------||
Ab|--------------------------------------------||
Fb|--------------------------------------------||
Cb|--------------------------------------------||
Gb|--2--4--4----2--4--5----2--3--3---------6~--||
Db|--0--2-------0--2-------0--1------2--1------||
PM                                   .  .


Riff 3  () Are optional. They are Guitar 2

Db|--------------------------------------------------------||
Ab|--------------------------------------------------------||
Fb|--------------------------------------------------------||
Cb|---------------------------------------------(3)(2)-----||
Gb|------------------/8--7----------------------/5--4-(3)--||
Db|--0---0/-8--7\-3---------8\--0---0/-8--7\-2---------5\--||


Riff 4

Db|------------------------------------------------------||
Ab|------------------------------------------------------||
Fb|------------------------------------------------------||
Cb|------------------------------------------------------||
Gb|--2-2-2-2-3\2--2-2-5/6-5\4--2-2-2-2-3\2--2-2-5/6-5\4--||
Db|--0-0-0-0-1\0--0-0-3/4-3\2--0-0-0-0-1\0--0-0-3/4-3\2--||
PM   . . . .      . .          . . . .      . .

Fill 1

Db|--------------------------||
Ab|--------------------------||
Fb|--------------------------||
Cb|--------------2--1--3--2--||
Gb|--2--1--3--2--------------||
Db|--------------------------||


Fill 2   (I'm not sure about the last notes)

Db|--------------------------||
Ab|--------------------------||
Fb|--------------------------||
Cb|--2-----------2--3--------||
Gb|--2-----------------------||
Db|--0-----------------3--2--||


Riff 5
                                   x3
Db|----------------------------------|--------------------------------||
Ab|----------------------------------|--------------------------------||
Fb|*--------------------------------*|--------------------------------||
Cb|*-4-4-4~---------3-3-3~----------*|--4-4-4~--------3-3-3~------3-3-||
Gb|--2-2-2~---------1-1-1~-----------|--2-2-2~--------1-1-1~------1-1-||
Db|--2-2-2~---------1-1-1~-----------|--2-2-2~--------1-1-1~------1-1-||
PM   . .            . .                 . .           . .         . .


Riff 6    (") Means Trem Pick

Db|-------------------------------------------------------------------||
Ab|-------------------------------------------------------------------||
Fb|-------------------------------------------------------------------||
Cb|-------------------------------------------------------------------||
Gb|--4"--------3"------------4"----------------7"--6"----------6"--5"-||
Db|-------5"--------4"--3"--------5"---4"--5"----------6"--7"---------||


Riff 7

Db|----------------------------||
Ab|----------------------------||
Fb|----------------------------||
Cb|----------------------------||
Gb|------------6"--4"----------||
Db|--0"---1"-----------5"--4"--||


Riff 8

Db|------------------------------------------------------------------||
Ab|------------------------------------------------------------------||
Fb|------------------------------------------------------------------||
Cb|--------------------------------------------------------3------3--||
Gb|--2-2-2---2-2-2---2-2-2---2-2-2---2-2-2---2-2-2---2-2-2-3--2-2-3--||
Db|--0-0-0---0-0-0---0-0-0---0-0-0---0-0-0---0-0-0---0-0-0-1--0-0-1--||
PM   . . .   . . .   . . .   . . .   . . .   . . .   . . .    . .

Riff 9

Db|----------------------------------------------------------------||
Ab|----------------------------------------------------------------||
Fb|----------------------------------------------------------------||
Cb|------------------------------------------------------3------3--||
Gb|--2-2-2-2-2-2-2-2-2-2-2-2-2-2-2-2-2-2-2-2-2-2-2-2-2-2-3--2-2-3--||
Db|--0-0-0-0-0-0-0-0-0-0-0-0-0-0-0-0-0-0-0-0-0-0-0-0-0-0-1--0-0-1--||
PM   . . . . . . . . . . . . . . . . . . . . . . . . . .    . .

Riff 10

Db|----------------------------------------------------------------||
Ab|----------------------------------------------------------------||
Fb|----------------------------------------------------------------||
Cb|------------------------------------------------------3------3--||
Gb|--2-2---2-2-2---2-2-2---2-2-2---2-2-2---2-2-2---2-2-2-3--2-2-3--||
Db|--0-0---0-0-0---0-0-0---0-0-0---0-0-0---0-0-0---0-0-0-1--0-0-1--||
PM   . .   . . .   . . .   . . .   . . .   . . .   . . .    . .


Riff 11  I'm not sure if this is Trem Picking but here are the notes

Db|--------------|------------------------------------||
Ab|--------------|------------------------------------||
Fb|--------------|------------------------------------||
Cb|--6-----4--3--|--------7--6---9--------7--6--7--9--||
Gb|--4--6--2--1--|--6--5--5--4---7--6--5--5--4--5--7--||
Db|-----4--------|--4--3------------4--3--------------||

  Visit MetalTabs.com for more metal tablature

bottom separator

Contact Us | Privacy Policy | Disclaimer | Legal Notice
Copyright © 2001-2014 MetalTabs.com. All Rights Reserved.