top separator

Home

Forum

What's New

Submit a Tab

FAQ

Links

Contact Us

Link to Us

MuSpy.com

MetalTabs.com logo

Bands

0-9

A

B

C

D

E

F

G

H

I

J

K

L

M

N

O

P

Q

R

S

T

U

V

W

X

Y

Z

Search

What

Where
 

My Dying Bride - "God Is Alone" Guitar Tab

Plain Text Version
More My Dying Bride Tabs

Hits: 4524
Rated: 4.50 out of 5 (2 votes)
Updated: 2002-07-21 13:34:35

 

Important note
This tab is available online because we obtained explicit permission from My Dying Bride or their label.


#----------------------------------PLEASE NOTE---------------------------------#
#This file is the author's own work and represents their interpretation of the #
#song. You may only use this file for private study, scholarship, or research. #
#Unless specified otherwise, this is NOT an official tab from the band members.#
#------------------------------------------------------------------------------#

  Visit MetalTabs.com for more metal tablature
  
Title: God Is Alone
Artist: My Dying Bride
Album: Symphonaire Infernus Et Spera Empyrium

Instrument: Guitar

Tabbed by: Andy Briones (House_Of_Shame@msn.com)

Tuning: 1 1/2 Steps Down (Db Gb Cb Fb Ab Db)

Hopefully you could figure out the rhythm for yourself.
Just listen to the song a couple of times to become familiar with it.
Then you'll get it.

Tablature Notation
------------------
.  - palm mute                  /  - slide up to
\  - slide down to              ~  - vibrato
h  - hammer on                  b  - bend
p  - pull off                   Suffixes for bend
ph - pinch harmonic             f - full bend    h - half bend
                                r - release      t - tap bend
X  - percussion mute            ~ - vibrato bend
@  - slight palm mute           () - ghost note, sustained note
"  - Trem Pick
-----------------------------------------------------------------

Riff 1 (I'm not sure if this is even close)
Db|---------------------------------------------------------------------||
Ab|---------------------------------------------------------------------||
Fb|---------------------------------------------------------------------||
Cb|-----------9-------------9-10-9-8\-----------------------------------||
Gb|----2--2-2-7--2-2-2--2-2-7--8-7-6\-----------Bend while-trem-picking-||
Db|----0--0-0----0-0-0--0-0--------------3"--2"--(4")^------------------||
          . .    . .    . .

Riff 2 (Unsure of)
Db|----------------------------------------------||
Ab|----------------------------------------------||
Fb|----------------------------------------------||
Cb|------------5-6---------3-4-------------------||
Gb|----2-2-5-2-3-4-2-2-5-2-1-2-------------------||
Db|----0-0-3-0-----0-0-3-0-----0"--1"--4"--3"----||

End on:

Db|---------||
Ab|---------||
Fb|---------||
Cb|----2----||
Gb|----2----||
Db|----0----||

Riff 3 (There are 2 different rhythms to this please figure it out)
Db|----------------------------------------------------------------||
Ab|----------------------------------------------------------------||
Fb|----------------------------------------------------------------||
Cb|-----------------------------6-5--------------------------------||
Gb|------------4-5----------6-7--------------4-5--------6----------||
Db|----0"-----------0"--------------0"-----------0"-------7-6-5----||


Riff 4
Gtr. 1
Db|-------------------------------------------------------||
Ab|-------------------------------------------------------||
Fb|-------------------------------------------------------||
Cb|---------------------4"-3"------------------6"-5"3"----||
Gb|----3-3-5-3-3"-4"-3"-------3-3-5-3-3"-4"-3"------------||
Db|----1-1-3-1----------------1-1-3-1---------------------||

Gtr. 2
Db|-------------------------------------------------------------------||
Ab|-------------------------------------------------------------------||
Fb|-------------------------------------------------------------------||
Cb|------------5----------------------5---*Last-time-let-note-ring----||
Gb|----3-3-5-3-3--------------3-3-5-3-3-------------------------------||
Db|----1-1-3-1----------------1-1-3-1---------------------------------||


Riff 5
Db|-------------------------------------------------------||
Ab|-------------------------------------------------------||
Fb|-------------------------------------------------------||
Cb|----4"-3"-------------------2"-1"----------------------||
Gb|----------4"-3"-4"-3"-------------2"-1"-2"-1"----------||
Db|----------------------4"-3"-------------------2"-1"----||


Riff 6
Db|-------------------------------------------------------||
Ab|-------------------------------------------------------||
Fb|-------------------------------------------------------||
Cb|-------1"-3"-6"-4"-3"----------------2"-1"-3"-2"-------||
Gb|----------------------6"-4"----2"-1"-------------3"----||
Db|----3"----------------------1"-------------------------||


Riff 7
Db|--------------------------------||
Ab|--------------------------------||
Fb|--------------------------------||
Cb|--------------------5-4---------||
Gb|----2----5--2--8-7--3-2--7-6----||
Db|----0----3--0--6-5-------5-4----||
                  * *  * *  * *  *=play short

Riff 8
Db|------------------------------------||
Ab|------------------------------------||
Fb|------------------------------------||
Cb|----------------------5-4~----------||
Gb|----2----5--2--8--7~--3-2~--7-6~----||
Db|----0----3--0--6--5~--------5-4~----||


Riff 9
Db|----------------------------------------||
Ab|----------------------------------------||
Fb|----------------------------------------||
Cb|----------------------------------------||
Gb|----------------------------------------||
Db|----0"---3"--0"--6"5"--8"--7"--5"-4"----||
       .    .   .   . .   .   .   .  .

  Visit MetalTabs.com for more metal tablature

bottom separator

Contact Us | Privacy Policy | Disclaimer | Legal Notice
Copyright © 2001-2014 MetalTabs.com. All Rights Reserved.