top separator

Home

Forum

What's New

Submit a Tab

FAQ

Links

Contact Us

Link to Us

MetalTabs.com logo

Bands

0-9

A

B

C

D

E

F

G

H

I

J

K

L

M

N

O

P

Q

R

S

T

U

V

W

X

Y

Z

Search

What

Where
 

Lord Belial - "Belial--Northern Prince of Evil" Guitar Tab

Plain Text Version
More Lord Belial Tabs

Hits: 4948
Rated: 3.33 out of 5 (3 votes)
Updated: 2005-05-26 16:48:02

 

By:

odog502

sendpm.gif

email.gif

Important note
This tab is available online because we obtained explicit permission from Lord Belial or their label.


#----------------------------------PLEASE NOTE---------------------------------#
#This file is the author's own work and represents their interpretation of the #
#song. You may only use this file for private study, scholarship, or research. #
#Unless specified otherwise, this is NOT an official tab from the band members.#
#------------------------------------------------------------------------------#

  Visit MetalTabs.com for more metal tablature
  
Lord Belial:  Belial - Northern Prince of Evil

transcribed by:   Adam Oettmeier  :  odog502@yahoo.com

Date last modified:  May 23, 2002

Tuning: Down a half step to D#

In typical black metal style theres a lot of fast picking.
So instead of tabbing out every single note.  I will just be tabbing
it as tremolo picking.

notation:
^   =  bend [ ^ = half, ^^ = whole, etc. ]
^r  =  bend and release
x   =  mute with fret-hand
*   =  mute with palm-hand
X\\ =  pick slide
h   =  hammer-on
p   =  pull-off
~   =  vibrato
t   =  tap-on
/   =  slide up
\   =  slide down
h.  =  harmonics
ah  =  artificial harmonic
(9) =  ghost note
tm  =  trem picking
tr  =  trill


  Riff 1
D#:---------------------------------------------|
A#:---------------------------------------------|
F#:-------------------------------------9-------|
C#:-------7---------6---------7----10---9-------|
G#:--0---------8---------0----------------------|
D#:---------------------------------------------|
     tm........................................|

  Riff 2 (played with riff 1)
D#:---------------------------------------------|
A#:---------------------------------------------|
F#:-------------7-------------------9----7--9-7-|
C#:--7----10--------9----7----10----------------|
G#:---------------------------------------------|
D#:---------------------------------------------|
     tm........................................|


  Riff 3
D#:---------------------------------------------|
A#:---------------------------------------------|
F#:---------------------------------------------|
C#:--10---9----10---9--10--8--------------------|
G#:------------------------6---X\\--------------|
D#:------------------------6--------------------|
     tm..................|

  Riff 4
D#:------------------------|----------------------------------|
A#:------------------------|----------------------------------|
F#:------------------------|----------------------------------|
C#:--10---9----10---9--10--|----------------------------------|
G#:------------------------|----------------------------------|
D#:------------------------|---6-6-6---6-6-6---6-6-6---6-6-6--|
     tm..................|     * * *   * * *   * * *   * * *
                                    (play measure twice)

  Riff 5 (played with riff 4)
D#:------------------------|----------------------------------|
A#:------------------------|----------------------------------|
F#:--9---------------------|----------------------------------|
C#:------------------------|----------------------------------|
G#:------------------------|----------------------------------|
D#:------------------------|---6-6-6---6-6-6---6-6-6---6-6-6--|
     tm..................|     * * *   * * *   * * *   * * *
                                     (play measure twice)

  Riff 6
D#:----|------------------------------------|
A#:----|------------------------------------|
F#:----|------------------------------------|
C#:----|------------------------------------|
G#:-4--|-3/4\3---2/3/4---3/4/5---4/5\4------|
D#:-2--|-1/2\1---0/1/2---1/2/3---2/3\2------|
               (repeat this measure)

  Riff 7 (played with Riff 6)
D#:----|-----------------------------------------------------|
A#:----|-----------------------------------------------------|
F#:----|-----------------------------------------------------|
C#:----|-----------------------------------------------------|
G#:----|-----------------------------4--4--3--3--4--4--5--5--|
D#:----|-----------------------------2--2--1--1--2--2--3--3--|
                                     *  *  *  *  *  *  *  *

  Riff 8
D#:----|---------------------------------|
A#:----|---------------------------------|
F#:----|---------------------------------|
C#:----|---------------------------------|
G#:-4--|-3-4-3---2-3-4---3-4-5---4-5-4---|
D#:-2--|-1-2-1---0-1-2---1-2-3---2-3-2---|
    tm................................|
                (repeat this measure)


  Solo 1 (part 1)
D#:----------------------------------------------------------------|
A#:--------------------------10--12--------------------------------|
F#:--9------------------9------------------9--10--9----------------|
C#:-------12----10--9----------------12----------------12----10--9-|
G#:----------------------------------------------------------------|
D#:----------------------------------------------------------------|

  Solo 1 (part 2)
D#:------------------------------------|
A#:------------------------------------|
F#:--9----12--9------------------------|
C#:--------------12----10--9-----------|
G#:---------------------------12-------|
D#:------------------------------------|

  Riff 9 (played with solo)
D#:----------------------------------|
A#:----------------------------------|
F#:---------9-------7------5----4----|
C#:---------10------9------7----6----|
G#:--0-------------------------------|
D#:----------------------------------|
     tm.............................|

  Riff 10  (played with riff 1)
D#:------------------------------------------|
A#:------------------------------------------|
F#:------------------------------------------|
C#:--2-------------------2---------5----4----|
G#:--0---------3----6----0---------3----2----|
D#:------------1----4------------------------|
     tm....................................|

  Visit MetalTabs.com for more metal tablature

bottom separator

Contact Us | Privacy Policy | Disclaimer | Legal Notice
Copyright © 2001-2014 MetalTabs.com. All Rights Reserved.