top separator

Home

Forum

What's New

Submit a Tab

FAQ

Links

Contact Us

Link to Us

MuSpy.com

MetalTabs.com logo

Bands

0-9

A

B

C

D

E

F

G

H

I

J

K

L

M

N

O

P

Q

R

S

T

U

V

W

X

Y

Z

Search

What

Where
 

Waylander - "Born To the Fight" Guitar Tab

Plain Text Version
More Waylander Tabs

Hits: 4142
Rated: 3.00 out of 5 (2 votes)
Updated: 2002-07-21 12:36:38

 

By:

Vortigern

sendpm.gif

email.gif

Important note
This tab is available online because we obtained explicit permission from Waylander or their label.


#----------------------------------PLEASE NOTE---------------------------------#
#This file is the author's own work and represents their interpretation of the #
#song. You may only use this file for private study, scholarship, or research. #
#Unless specified otherwise, this is NOT an official tab from the band members.#
#------------------------------------------------------------------------------#

  Visit MetalTabs.com for more metal tablature
  
Waylander
Born to the fight

From the album 'Reawakening Pride Once Lost' (Century Media)
All work protected by copyright

For corrections and Celtic words of wisdom contact Vortigern:
guy@freemail.hammerfall.net


Tune to D (thankx An-Ri-Na-Sidhé!)

Very cool song, and if I've got most of this correct, rather easy to play (even
though sometimes fast).

H: hammer on
P: pull off

Riff 1 (main riff), divided into four parts (play them after one another, but I
thought this was easier to type and read)
Part 1
|--------------------|
|--------------------|
|--------------------|
|---------2-4-2-0----|
|-2-0-2-5---------2--|
|--------------------|

part 2
|----------------|
|----------------|
|----------------|
|----------------|
|-2-0-2-5-2-0----|
|-------------2--|

part 3
|-----------------------|
|-----------------------|
|-------------2-2h4p2---|
|---------2-4---------4-|
|-2-0-2-5---------------|
|-----------------------|

part 4
|-------------------|
|-------------------|
|-2h4p2-------------|
|-------4-2---------|
|-----------4-5-2-2-|
|-------------------|

Riff 2, part1 (don't know whether I counted enough times. Just listen to song)

|------------------------|
|------------------------|
|-5-55-55-55-55-55-55-33-|
|-5-55-55-55-55-55-55-33-|
|-3-33-33-33-33-33-33-11-|
|------------------------|

part 2
|--------------------------|
|--------------------------|
|-5-55-55-55-55-88-5/3/5---|
|-5-55-55-55-55-88-5/3/5---|
|-3-33-33-33-33-66-3/1/3---|
|--------------------------|

third riff is riff 2 but (I think) one octave higher.

Feeling bit lazy, so figure out repeats for yourself. That's the easy part.

  Visit MetalTabs.com for more metal tablature

bottom separator

Contact Us | Privacy Policy | Disclaimer | Legal Notice
Copyright © 2001-2014 MetalTabs.com. All Rights Reserved.