top separator

Home

Forum

What's New

Submit a Tab

FAQ

Links

Contact Us

Link to Us

MetalTabs.com logo

Bands

0-9

A

B

C

D

E

F

G

H

I

J

K

L

M

N

O

P

Q

R

S

T

U

V

W

X

Y

Z

Search

What

Where
 

Twin Obscenity - "Adoration Of The Moon [Intro]" Guitar Tab

Plain Text Version
More Twin Obscenity Tabs

Hits: 3215
Rated: 5.00 out of 5 (2 votes)
Updated: 2002-07-21 12:30:02

 

Important note
We did our best to reach Twin Obscenity and ask for their permission to publish this tab. Unfortunately they did not respond to our requests or we could not find a way to contact them. This tab is available online until Twin Obscenity tells us to take it down.


#----------------------------------PLEASE NOTE---------------------------------#
#This file is the author's own work and represents their interpretation of the #
#song. You may only use this file for private study, scholarship, or research. #
#Unless specified otherwise, this is NOT an official tab from the band members.#
#------------------------------------------------------------------------------#

  Visit MetalTabs.com for more metal tablature
  
TWIN OBSCENITY - ADORATION OF THE MOON
From the Album "BLOODSTONE"
Copyright 2001 MAGIC ARTS PUBLISHING
Transcribed by: Atle Wiig (composer)
For Questions, Comments, Newest Version, or Corrections contact TWIN OBSCENITY
at www.twinobscenity.com(use the interactive menuitem)

Symbols:

P = pull off
~ = slide


Beat 4/4
triplets

Guitar I


fig 1
|------0-----------------|------0-----------------|------0-----------------|------0-----------------|
|--------1-------3---3---|--------1-------3-----9-|--------1-------3---3---|--------1-------3-----9-|
|----2-----2---2-------1-|----2-----2---2-----7---|----2-----2---2-------1-|----2-----2---2-----7---|
|--2---------3-----0-----|--2---------3-----6-----|--2---------3-----0-----|--2---------3-----6-----|
|0-----------------------|0-----------------------|0-----------------------|0-----------------------|
|------------------------|------------------------|------------------------|------------------------|


fig 2
|------------------0-----|------------------------|------------------0-----|------------------------|
|------1---------3---3---|------1------0------0---|------1---------3---3---|------1------0------0---|
|----2---2-----3-------3-|----2--2-------0------0-|----2---2-----3-------3-|----2--2-------0------0-|
|--2-------1-------------|--2------2--------------|--2-------1-------------|--2------2--------------|
|0-----------1-----------|0----------3-----2------|0-----------1-----------|0----------3-----2------|
|------------------------|------------------------|------------------------|------------------------|


fig 3
|------------------------|------------------------|------------------------|------------------------|
|------------------------|--------------1-----0---|------------------------|--------------1-----0---|
|------0-----------0---0-|------0---------0-----0-|------0-----------0---0-|------0---------0-----0-|
|----2---2-------3---3---|----2---2---------------|----2---2-------3---3---|----2---2---------------|
|--2-------2---3---------|--2-------2-3-----2-----|--2-------2---3---------|--2-------2-3-----2-----|
|0-----------1-----------|0-----------------------|0-----------1-----------|0-----------------------|


Guitar II (lead)

---------------|--------------------0-1-|0----------~8-----7-----|0-------------------0-1-|0----------~8-----7-----|
-1p-0---0------|--------------0-1-3-----|------------------------|--------------0-1-3-----|------------------------|
------2---2p-0-|2-----------2-----------|------------------------|------------2-----------|------------------------|
---------------|------------------------|------------------------|------------------------|------------------------|
---------------|------------------------|------------------------|------------------------|------------------------|
---------------|------------------------|------------------------|------------------------|------------------------|

               |5-----------------0-----|------0-----------------|------------------0-----|------------------------|
               |------------3-----------|1-----------0-----------|------------3-----------|1-----------0-----------|
               |------------------------|------------------0-----|2-----------------------|------------------0-----|
               |------------------------|------------------------|------------------------|------------------------|
               |------------------------|------------------------|------------------------|------------------------|
               |------------------------|------------------------|------------------------|------------------------|



Song Structure:

Fig 1 x 1
Fig 2 X 1
Fig 3 X 1
Fig 1 x 1

Metaltabs.com are autorized to publish this tab permissions given by Jo Arild Tonnessen
bassplayer in Twin Obscenity and webmaster of www.twinobscenity.com

  Visit MetalTabs.com for more metal tablature

bottom separator

Contact Us | Privacy Policy | Disclaimer | Legal Notice
Copyright © 2001-2014 MetalTabs.com. All Rights Reserved.