top separator

Home

Forum

What's New

Submit a Tab

FAQ

Links

Contact Us

Link to Us

MuSpy.com

MetalTabs.com logo

Bands

0-9

A

B

C

D

E

F

G

H

I

J

K

L

M

N

O

P

Q

R

S

T

U

V

W

X

Y

Z

Search

What

Where
 

Skyfire - "Dimensions Unseen" Guitar Tab

Plain Text Version
More Skyfire Tabs

Hits: 5274
Rated: 3.44 out of 5 (9 votes)
Updated: 2002-07-18 13:33:51

 

Important note
This tab is available online because we obtained explicit permission from Skyfire or their label.


#----------------------------------PLEASE NOTE---------------------------------#
#This file is the author's own work and represents their interpretation of the #
#song. You may only use this file for private study, scholarship, or research. #
#Unless specified otherwise, this is NOT an official tab from the band members.#
#------------------------------------------------------------------------------#

  Visit MetalTabs.com for more metal tablature
  
Band:  Skyfire
Album: Timeless Departure
Song:  Dimensions Unseen

Copyright (c)  Martyr 2001
Version 1.0 - 5-17-02

Transcribed By: Mike Byrne
Email:          Firebolt25@aol.com

There are most likely mistakes in this so if you find any please email me.
Thanks. I tabbed the guitar parts the best I could though they were
hard to hear at times.


Standard Tuning

 Intro
  Q=125
 4/4
  Gtr I
  E S e e e e   S S S S S   E S e   e e e S E   S  S
|-------------------------|-------------5------------|
|---------5---------------|-----------5---8-7---8-10-|
|---5p4-----------4-------|---5p4--------------------|
|-------7---7---7---7-6---|---------7----------------|
|-----------------------7-|--------------------------|
|-------------------------|--------------------------|
|
| Gtr II
| PM                  PM----|                 PM------
| E H         Q       S S   q     H         S S S  S
|-------------------------|--------------------------|
|-------------------------|--------------------------|
|-------------------------|--------------------------|
|-4-----------------------|-4------------------------|
|-4-----------------------|-4------------------------|
|-2-------------------4-5-|-2-----------------0-4--5-|


   E S e   e e e S S S S S   E S E E S S S S S q
|--------------------------|------------------------|
|--7---------5-------------|------------------------|
|----5p4-----------4-------|-------------4----------|
|----------7---7-7---7-6---|-4-6-7-4-4-6---7-6-4----|
|------------------------7-|------------------------|
|--------------------------|------------------------|
|
|--|                 PM--|
|  q     H         S S S S   W
|--------------------------|------------------------|
|--------------------------|------------------------|
|--------------------------|------------------------|
|--4-----------------------|-2----------------------|
|--4-----------------------|-2----------------------|
|--2-----------------0-5-4-|-0----------------------|


  E S e   e   e e S S S S S   E S e   e   E E S  S  S  E
|---------------------------|----------------------------|
|-------------5-------------|----------------------------|
|---5p4-------------4-------|---5p4----------------------|
|---------7-----7-7---7-6---|---------7------------------|
|-------------------------7-|-------------8-8-8-10-10-10-|
|---------------------------|-------------6-6-6--8--8--8-|
|
| PM------------------------------------|
| E E   E   S E E S E   E     E E   E   S E E S  S  S  E
|---------------------------|----------------------------|
|---------------------------|----------------------------|
|---------------------------|----------------------------|
|---------------------------|----------------------------|
|-5-5---5---5-5-5-5-5---5---|-5-5---5---5-8-8-8-10-10-10-|
|-3-3---3---3-3-3-3-3---3---|-3-3---3---3-6-6-6--8--8--8-|


  E S e   e   e e S S S S S   E S E E S S S S S q
|---------------------------|------------------------|
|-------------5-------------|------------------------|
|---5p4-------------4-------|-------------4----------|
|---------7-----7-7---7-6---|-4-6-7-4-4-6---7-6-4----|
|-------------------------7-|------------------------|
|---------------------------|------------------------|
|
| PM--------------------|
| E E   E   S E E S E   E     E S E E S S S S S q
|---------------------------|------------------------|
|---------------------------|------------------------|
|---------------------------|------------------------|
|---------------------------|------------------------|
|-5-5---5---5-5-5-5-5---5---|-------------2----------|
|-3-3---3---3-3-3-3-3---3---|-2-4-5-2-2-4---5-4-2----|


    E S e    e    e       e    S S S S S   E S e    e    E       E     S  S  S  E
||---------------------------------------|----------------------------------------|
||o---------------5----------------------|----------------------------------------|
||----5p4------------------------4-------|---5p4----------------------------------|
||-----------7------------7----7---7-6---|----------7-----------------------------|
||o------------------------------------7-|---------------8-------8-----8-10-10-10-|
||---------------------------------------|---------------6-------6-----6--8--8--8-|
|
|   PM------------------------------------------------|
|   E E    E    S E       E    S E   E     E E    E    S E       E     S  S  S  E
||---------------------------------------|----------------------------------------|
||o--------------------------------------|----------------------------------------|
||---------------------------------------|----------------------------------------|
||---------------------------------------|----------------------------------------|
||o-5-5----5----5-5-------5----5-5---5---|-5-5----5----5-8-------8-----8-10-10-10-|
||--3-3----3----3-3-------3----3-3---3---|-3-3----3----3-6-------6-----6--8--8--8-|
|
|     Gtr IV
|   E E    E    E    E      S  S Q         E E    E    E    E       S  S  S  S  E
||---------------------------------------|--------------------------------8-------|
||o---8---10---11---10b11---8-10-8-------|---8---10---11---10b11---11-10----11-10-|
||---------------------------------------|----------------------------------------|
||---------------------------------------|----------------------------------------|
||o--------------------------------------|----------------------------------------|
||---------------------------------------|----------------------------------------|


  E S e    e    e       e    S S S S S   E S E E S S S S S q
|--------------------------------------|-----------------------||
|---------------5----------------------|----------------------o||
|---5p4------------------------4-------|-------------4---------||
|----------7------------7----7---7-6---|-4-6-7-4-4-6---7-6-4---||
|------------------------------------7-|----------------------o||
|--------------------------------------|-----------------------||
|
| PM-------------------------------|
| E E    E    S E       E    S E   E     E S E E S S S S S q
|--------------------------------------|-----------------------||
|--------------------------------------|----------------------o||
|--------------------------------------|-----------------------||
|--------------------------------------|-----------------------||
|-5-5----5----5-5-------5----5-5---5---|-------------2--------o||
|-3-3----3----3-3-------3----3-3---3---|-2-4-5-2-2-4---5-4-2---||
|
| E E    E    E    E      S  S Q         W
|--------------------------------------|-----------------------||
|---8---10---11---10b11---8-10-8-------|----------------------o||
|--------------------------------------|-----------------------||
|--------------------------------------|-----------------------||
|--------------------------------------|----------------------o||
|--------------------------------------|-----------------------||


   Verse - Starts at 0:29
    Q=185
     H           +E   E  E  E    Q     E  Q.        Q
||----------------------------|-----------------------------|
||o---------------------------|-----------------------------|
||--13----------(13)-13-11h13-|-15----13-11--------15-------|
||----------------------------|-----------------------------|
||o---------------------------|-----------------------------|
||----------------------------|-----------------------------|
|
|          PM         PM         PM|          PM|
|    Q     E  Q       E  Q       E  E  Q      E  E  Q
||----------------------------|-----------------------------|
||o---------------------------|-----------------------------|
||----------------------------|-----------------------------|
||--13----13-13------13-13----|--8--8---------8--8----------|
||o-11----11-11------11-11----|--6--6---------6--6----------|
||----------------------------|-----------------------------|
|
|   Gtr III
|    E  E  E  E   E   E  E  E    E  E  E  S   S  E  E  E  E
||--------11-16--11-----------|----------14--14-13----------|
||o----12------------12----12-|-------16-----------16-------|
||--13------------------13----|----15-----------------15----|
||----------------------------|-13-----------------------13-|
||o---------------------------|-----------------------------|
||----------------------------|-----------------------------|


   Q     H            Q       Q     S  S  E  E  E  E  E
|--------------------------|-----------------------------||
|--------------------------|----------------------------o||
|-16----13----------/16----|-15----13-15-13-11-13-11-11--||
|--------------------------|-----------------------------||
|--------------------------|----------------------------o||
|--------------------------|-----------------------------||
|
|        PM       PM          PM|            PM|
|  Q     E  Q     E   Q       E  E  Q        E  E  Q
|--------------------------|-----------------------------||
|--------------------------|----------------------------o||
|--------------------------|-----------------------------||
|--9-----9--9-----9---9----|-11-11----------11-11--------||
|--7-----7--7-----7---7----|--9--9-----------9--9-------o||
|--------------------------|-----------------------------||
|
|  E  E  E  E  E  E   E  E    E  E  E  S  S  E  E  E  E
|----------16--------------|----------18-19-18-----------||
|-------17----17-----------|-------19----------19-------o||
|----16----------16-----16-|----18----------------18-15--||
|-14-----------------14----|-16--------------------------||
|--------------------------|----------------------------o||
|--------------------------|-----------------------------||


   >
   ~~~~~~~~~~~~~~~~~~~~~~~~~~~~~~~~~~~~~~~~~~~~~~~~~~~~~~~
   W                         +W
|-------------------------|------------------------------|
|-12----------------------|-(12)-------------------------|
|-------------------------|------------------------------|
|-------------------------|------------------------------|
|-------------------------|------------------------------|
|-------------------------|------------------------------|
|
|        PM       PM          PM-|            PM|
|  Q     E  Q     E  Q        E   E  Q        E  E  Q
|-------------------------|------------------------------|
|-------------------------|------------------------------|
|-------------------------|------------------------------|
|-13----13-13----13-13----|---8---8-----------8--8-------|
|-11----11-11----11-11----|---6---6-----------6--6-------|
|-------------------------|------------------------------|
|
|  E  E  E  E  E  E  E  E     E   E  E  S  S  E  E  E  E
|-------11-16-11----------|------------14-14-13----------|
|----12----------12----12-|---------16----------16-------|
|-13----------------13----|------15----------------15----|
|-------------------------|--13-----------------------13-|
|-------------------------|------------------------------|
|-------------------------|------------------------------|


 ~~~~~~~~~~~~~~~~~~~~~~~~~~~~~~~~~~
   +W                          +W
|---------------------------|------------------------------|
|-(12)----------------------|-(12)-------------------------|
|---------------------------|------------------------------|
|---------------------------|------------------------------|
|---------------------------|------------------------------|
|---------------------------|------------------------------|
|
|   PM-|      PM|      PM----------|      PM---|      PM|
|   E   E  E  E  E  E  E  E     E   E  E  E     E  E  E  E
|---------------------------|------------------------------|
|----------9----------------|---------11-------------------|
|-------------------9-------|---------------------11-------|
|-------9--------9--------9-|------11----------11-------11-|
|---7---------7--------7----|---9---------9-----------9----|
|---------------------------|------------------------------|
|
|   E   E  E  E  E  E  E  E     E   E  E  S  S  E  E  E  E
|------------16-------------|------------18-19-18----------|
|---------17----17----------|---------19----------19-------|
|------16----------16----16-|------18----------------18-15-|
|--14-----------------14----|--16--------------------------|
|---------------------------|------------------------------|
|---------------------------|------------------------------|


 Pre-Chorus - Starts at 0:51
         PM       PM         PM|            PM|
   Q     E  Q     E  Q       E  E  Q        E  E  Q
|-------------------------|----------------------------|
|-------------------------|----------------------------|
|-------------------------|----------------------------|
|-13----13-13----13-13----|--8--8-----------8--8-------|
|-11----11-11----11-11----|--6--6-----------6--6-------|
|-------------------------|----------------------------|
|
|  E  E  E  E  E  E  E  E    E  E  E  S  S  E  E  E  E
|-------11-16-11----------|----------14-14-13----------|
|----12----------12----12-|-------16----------16-------|
|-13----------------13----|----15----------------15----|
|-------------------------|-13----------------------13-|
|-------------------------|----------------------------|
|-------------------------|----------------------------|


   PM|      PM|      PM--------|      PM---|      PM|
   E  E  E  E  E  E  E  E    E  E  E  E     E  E  E  E
|-------------------------|----------------------------|
|--------9----------------|-------11-------------------|
|-----------------9-------|-------------------11-------|
|-----9--------9--------9-|----11----------11-------11-|
|--7--------7--------7----|--9--------9-----------9----|
|-------------------------|----------------------------|
|
|  E  E  E  E  E  E  E  E    E  E  E  S  S  E  E  E  E
|----------16-------------|----------18-19-18----------|
|-------17----17----------|-------19----------19-------|
|----16----------16----16-|----18----------------18-15-|
|-14----------------14----|-16-------------------------|
|-------------------------|----------------------------|
|-------------------------|----------------------------|


   W                 +W
|------------------|---------------------|
|------------------|---------------------|
|------------------|---------------------|
|--9---------------|-(9)-----------------|
|------------------|---------------------|
|------------------|---------------------|
|
|  PM    PM-|             PM-----|
|  q  E  q   q   E    E   E  E E  E Q.
|------------------|---------------------|
|------------------|---------------------|
|------------------|---------------------|
|-13--------13--11-|-----13-11-9-13------|
|-11----14--11---9-|-----11--9-7-11------|
|-------12---------|---------------------|


  Q    E  Q    E  E  E    +E     S  S  E  E  Q   Q
|----------------------|----------------------------|
|-------------14----14-|-(14)-----------------------|
|-----15-16------16----|--------15-16-15-13-11------|
|----------------------|----------------------------|
|----------------------|----------------------------|
|----------------------|----------------------------|
|
| PM---------------------------------------------|
| E E  E  E E  E  E  E     E  E  E     E  E  E E E
|----------------------|----------------------------|
|----------------------|----------------------------|
|----------------------|----------------------------|
|-4-4--4--4-4--4--4--4-|----------------------------|
|-2-2--2--2-2--2--2--2-|---4--4--4-----4--4--4-4-4--|
|----------------------|---2--2--2-----2--2--2-2-2--|


  H..             E       Q E E Q Q         Q   E  Q    E  E  E
|-------------------|-------------------|-----------------------|
|-------------------|-------------------|--------------14----14-|
|-------------------|-------------------|------15-16------16----|
|-9---------------6h|=====8-9p8-6-9-----|-----------------------|
|-------------------|-------------------|-----------------------|
|-------------------|-------------------|-----------------------|
|
|     PM|   PM------------------------|     PM-------------------
| E   E E E E E E E   E E E E   E E E E   E E   E  E E  E  E  E
|-------------------|-------------------|-----------------------|
|-------------------|-------------------|-----------------------|
|-------------------|-------------------|-----------------------|
|-6-------6---------|-------------------|-9---------------------|
|-6---6-6-6-6-6-6-6-|-6-6-6-6---6-6-6-6-|-9-9---9--9-9--9--9--9-|
|-4---4-4-4-4-4-4-4-|-4-4-4-4---4-4-4-4-|-7-7---7--7-7--7--7--7-|


   +E     S  S  E    E    Q       Q
|-------------------------------------------|
|-(14)-------------------14-----------------|
|--------15-16-15---13----------------------|
|-------------------------------------------|
|-------------------------------------------|
|-------------------------------------------|
|
|---------------------------------------|
|   S  S  S  S  S S  S S  S S S S S S S S
|-------------------------------------------|
|-------------------------------------------|
|-------------------------------------------|
|-------------------------------------------|
|-------------------------------------------|
|---2--2--2--2--2-2--2-2--2-2-2-2-2-2-2-2---|


  H..                           E     Q       E   E   Q       Q
|-----------------------------------|---------------------------------|
|-----------------------------------|---------------------------------|
|-----------------------------------|---------------------------------|
|-9-----------------------------6h==|=8-------9p==8---6-------9-------|
|-----------------------------------|---------------------------------|
|-----------------------------------|---------------------------------|
|
| PM-------------------------------------------------------------------
| S   S S S S S S S S S S S S S S S   S S S S S S S S S S S S S S S S
|-----------------------------------|---------------------------------|
|-----------------------------------|---------------------------------|
|-----------------------------------|---------------------------------|
|-----------------------------------|---------------------------------|
|-----------------------------------|---------------------------------|
|-4---4-4-4-4-4-4-4-4-4-4-4-4-4-4-4-|-4-4-4-4-4-4-4-4-4-4-4-4-4-4-4-4-|


  Q        E    Q        E    E    E      +E     S  S  E    E    Q       Q
|--------------------------------------|--------------------------------------------|
|-----------------------14--------14---|-(14)---------------------------------------|
|---------15---16------------16--------|--------15-16-15---13---11------------------|
|--------------------------------------|--------------------------------------------|
|--------------------------------------|--------------------------------------------|
|--------------------------------------|--------------------------------------------|
|
|------------------------------------------------------------------------------|
| S S S S  S S  S S S S  S S  S S  S S     S  S  S  S  S S  S S  S S S S S S S S
|--------------------------------------|--------------------------------------------|
|--------------------------------------|--------------------------------------------|
|--------------------------------------|--------------------------------------------|
|--------------------------------------|--------------------------------------------|
|--------------------------------------|--------------------------------------------|
|-7-7-7-7--7-7--7-7-7-7--7-7--7-7--7-7-|---2--2--2--2--2-2--2-2--2-2-2-2-2-2-2-2----|


  H..                           E     Q       E   E   Q       Q
|-----------------------------------|---------------------------------|
|-----------------------------------|---------------------------------|
|-----------------------------------|---------------------------------|
|-9-----------------------------6h==|=8-------9p==8---6-------9-------|
|-----------------------------------|---------------------------------|
|-----------------------------------|---------------------------------|
|
| PM-------------------------------------------------------------------
| S   S S S S S S S S S S S S S S S   S S S S S S S S S S S S S S S S
|-----------------------------------|---------------------------------|
|-----------------------------------|---------------------------------|
|-----------------------------------|---------------------------------|
|-----------------------------------|---------------------------------|
|-----------------------------------|---------------------------------|
|-4---4-4-4-4-4-4-4-4-4-4-4-4-4-4-4-|-4-4-4-4-4-4-4-4-4-4-4-4-4-4-4-4-|


  Q        E    Q        E    E    E      +E     S  S  E    E    Q       Q
|--------------------------------------|--------------------------------------------|
|-----------------------14--------14---|-(14)-------------------14------------------|
|---------15---16------------16--------|--------15-16-15---13-----------------------|
|--------------------------------------|--------------------------------------------|
|--------------------------------------|--------------------------------------------|
|--------------------------------------|--------------------------------------------|
|
|------------------------------------------------------------------------------|
| S S S S  S S  S S S S  S S  S S  S S     S  S  S  S  S S  S S  S S S S S S S S
|--------------------------------------|--------------------------------------------|
|--------------------------------------|--------------------------------------------|
|--------------------------------------|--------------------------------------------|
|--------------------------------------|--------------------------------------------|
|--------------------------------------|--------------------------------------------|
|-7-7-7-7--7-7--7-7-7-7--7-7--7-7--7-7-|---2--2--2--2--2-2--2-2--2-2-2-2-2-2-2-2----|


 Chorus - 1:12
  Q=175
          PM--------------|      PM--------------|
          |-3-| |-3-| |-3-|      |-3-| |-3-| |-3-|
       Q  E E E E E E E E E   Q  E E E E E E E E E
|--||-----------------------|----------------------|
|--||o----------------------|----------------------|
|--||-----------------------|----------------------|
|--||--3--------------------|----------------------|
|--||o-1--1-1-1-1-1-1-1-1-1-|-3--------------------|
|--||-----------------------|-1--1-1-1-1-1-1-1-1-1-|


     PM--------|      PM--------------------|
     |-3-| |-3-|      |-3-| |-3-| |-3-| |-3-|
  Q  E E E E E E Q    E E E E E E E E E E E E
|-------------------|---------------------------||
|-------------------|--------------------------o||
|-------------------|---------------------------||
|-5-----------------|---------------------------||
|-3--3-3-3-3-3-3-5--|--------------------------o||
|----------------3--|-3-3-3-3-3-3-3-3-3-3-3-3---||


                                      PM|
    H.       Q   +W           H.      E E   W
||-------------|------------|-------------|-------||
||o------------|------------|-------------|------o||
||--3----------|------------|-6-----------|-------||
||--3--------4-|-(4)--------|-6-------6-6-|-6-----||
||o-1--------4-|-(4)--------|-4-------4-4-|-6----o||
||-----------2-|-(2)--------|-------------|-4-----||


 Interlude - 2:40
  Q=140
                     PM---|                       PM---|
                     |--3--|                      |--3--|
  q  H.        H     Q  Q  Q   q  H.        H     Q  Q  Q
|------------|---------------|------------|-----------------|
|------------|---------------|------------|-----------------|
|-9----------|---------------|-9----------|-----------------|
|-9----------|-9-------------|-9----------|-9---------------|
|-7----------|-9----11-11-11-|-7----------|-9----11-11-11---|
|------------|-7-----9--9--9-|------------|-7-----9--9--9---|


       PM--|    PM--|        PM---|
       |-3-|    |-3-|        |--3--|  |--3--|
    Q  E E E Q  E E E    Q   E  E  E  q  q  q
||--------------------|-----------------------|
||o-------------------|-----------------------|
||--9--------9--------|-----------------------|
||--9--9-9-9-9--9-9-9-|-10--------------------|
||o-7--7-7-7-7--7-7-7-|-10--10-10-10-12-12-12-|
||--------------------|--8---8--8--8-10-10-10-|


     PM--|    PM--|        PM---|
     |-3-|    |-3-|        |--3--|  |--3--|
  Q  E E E Q  E E E    Q   E  E  E  q  q  q
|-------------------|------------------------||
|-------------------|-----------------------o||
|-9--------9--------|------------------------||
|-9--9-9-9-9--9-9-9-|-10---------------------||
|-7--7-7-7-7--7-7-7-|-10--10-10-10-12-12-12-o||
|-------------------|--8---8--8--8-10-10-10--||




--------------------------------------------------------------------------------


Duration Legend
---------------
W - whole; H - half; Q - quarter; E - 8th; S - 16th; T - 32nd; X - 64th; a - acciaccatura
+ - note tied to previous; . - note dotted; .. - note double dotted
Uncapitalized letters represent notes that are staccato (1/2 duration)
Irregular groupings are notated above the duration line
Duration letters will always appear directly above the note/fret number it represents the
duration for.  Duration letters with no fret number below them represent rests.  Multi-
bar rests are notated in the form Wxn, where n is the number of bars to rest for.  Low
melody durations appear below the staff

Tablature Legend
----------------
 h   - hammer-on
 p   - pull-off
 b   - bend
 pb  - pre-bend
 r   - bend release (if no number after the r, then release immediately)
 /\  - slide into or out of (from/to "nowhere")
 s   - legato slide
 S   - shift slide
<n> - natural harmonic
[n]  - artificial harmonic
n(n) - tapped harmonic
 ~   - vibrato
 tr  - trill
 T   - tap
 TP  - trem. picking
 PM  - palm muting
\n/  - tremolo bar dip; n = amount to dip
 \n  - tremolo bar down
 n/  - tremolo bar up
/n\  - tremolo bar inverted dip
 =   - hold bend; also acts as connecting device for hammers/pulls
 <> - volume swell (louder/softer)
 x   - on rhythm slash represents muted slash
 o   - on rhythm slash represents single note slash

Misc Legend
-----------
 |  - bar
||  - double bar
||o - repeat start
o|| - repeat end
*|  - double bar (ending)
 :  - bar (freetime)
 $  - Segno
 &  - Coda
Tempo markers - <E/E./Q/Q./H/H.> = BPM(8/16=s8/s16),
where s8 = swing 8ths, s16 = swing 16ths

  Visit MetalTabs.com for more metal tablature

bottom separator

Contact Us | Privacy Policy | Disclaimer | Legal Notice
Copyright © 2001-2014 MetalTabs.com. All Rights Reserved.