top separator

Home

Forum

What's New

Submit a Tab

FAQ

Links

Contact Us

Link to Us

MuSpy.com

MetalTabs.com logo

Bands

0-9

A

B

C

D

E

F

G

H

I

J

K

L

M

N

O

P

Q

R

S

T

U

V

W

X

Y

Z

Search

What

Where
 

Empyrium - "A pastoral theme" Guitar Tab

Plain Text Version
More Empyrium Tabs

Hits: 4953
Rated: 4.33 out of 5 (3 votes)
Updated: 2002-07-18 13:05:02

 

Important note
We did our best to reach Empyrium and ask for their permission to publish this tab. Unfortunately they did not respond to our requests or we could not find a way to contact them. This tab is available online until Empyrium tells us to take it down.


#----------------------------------PLEASE NOTE---------------------------------#
#This file is the author's own work and represents their interpretation of the #
#song. You may only use this file for private study, scholarship, or research. #
#Unless specified otherwise, this is NOT an official tab from the band members.#
#------------------------------------------------------------------------------#

  Visit MetalTabs.com for more metal tablature
  
Empyrium - A Pastoral Theme(Where At Night The Wood Grouse Plays)

@All Copyright To The Doomed and Mikael Nacudrus

We are two guys from Transylvania and took us some time to tab this song.
The song might have mistakes and any corrections are welcome to our email addresses
(on the low side of the page)

Time signature 6/8
Normal Tuning(EADGBe)


Gtr I

|-----------0--------|-----------0--------|-----------0--------|
|--------0-----0-----|--------0-----0-----|--------0-----0-----|
|-----0-----------0--|-----0-----------0--|-----0-----------0--|
|--5-----------------|--4-----------------|--2-----------------|
|--------------------|--------------------|--------------------|
|--------------------|--------------------|--------------------|



|-----------0--------|-----------0--------|-----------0--------|
|--------0-----0-----|--------0-----0-----|--------0-----0-----|
|-----0-----------0--|-----0-----------0--|-----0-----------0--|
|--2-----------------|--5-----------------|--4-----------------|
|--------------------|--------------------|--------------------|
|--------------------|--------------------|--------------------|



|-----------0--------|--3--------2--------|
|--------0-----0-----|-----0--------0-----|
|-----0-----------0--|--------0--------0--|
|--2-----------------|--------------------|
|--------------------|--------------------|
|--------------------|--------------------|


Gtr I plays the part above all over the song


Gtr II Part 1


|--------------|--------------|--------------|--------------|
|--------------|--------------|--------------|--------------|
|--------------|--------------|--------------|--------------|
|--------------|--------------|--------------|--------------|
|--------------|--------------|--------------|--------------|
|--------------|--------------|--------------|--------------|



|------------------|---------------|---------------|----------------|
|------------------|---------------|---------------|----------------|
|------------------|---------------|---------------|----------------|
|------------------|---------------|---------------|----------------|
|------------------|---------------|---------------|--2------2------|
|--3----3--3--3----|--2------------|--0------------|----------------|


Gtr II Part 2


|----------------|----------------|---------------|----------------|
|----------------|----------------|---------------|----------------|
|----------------|----------------|---------------|----------------|
|--5--------5----|--4--------4----|--2------------|--2------2------|
|----------------|----------------|---------------|----------------|
|----------------|----------------|---------------|----------------|



|------------------|---------------|---------------|----------------|
|------------------|---------------|---------------|----------------|
|------------------|---------------|---------------|----------------|
|------------------|---------------|---------------|----------------|
|------------------|---------------|---------------|--2------2------|
|--3----3--3--3----|--2------------|--0------------|----------------|


Gtr II Part 3


|-----------------|-----------------|---------------|----------------|
|-----------------|-----------------|---------------|----------------|
|-----------------|-----------------|---------------|----------------|
|--5--------2--5--|--4--------0--4--|--2------------|--2------2------|
|-----------------|-----------------|---------------|----------------|
|-----------------|-----------------|---------------|----------------|



|------------------|---------------|---------------|----------------|
|------------------|---------------|---------------|----------------|
|------------------|---------------|---------------|----------------|
|------------------|---------------|---------------|----------------|
|------------------|---------------|---------------|--2------2------|
|--3----3--3--3----|--2------------|--0------------|----------------|


Gtr III Part 1 (not very loud)


|--5--7--8--7--5-----|
|-----------------8--|
|--------------------|
|--------------------|
|--------------------|
|--------------------|

Note : It is played 8 times


Gtr III Part 2


|---5--7--8--7------|
|-------------------|
|-------------------|
|-------------------|
|-------------------|
|-------------------|


                          *              *
|--5--7--8--7------|--------------|--------------|--10--8--7--8------|
|------------------|--------------|--------------|-------------------|
|------------------|--------------|--------------|-------------------|
|------------------|--------------|--------------|-------------------|
|------------------|--------------|--------------|-------------------|
|------------------|--------------|--------------|-------------------|


                         *               *
|--8--7--5--5------|--------------|---------------|
|------------------|--------------|---------------|
|------------------|--------------|---------------|
|------------------|--------------|---------------|
|------------------|--------------|---------------|
|------------------|--------------|---------------|

*-the empty spaces mean that the guitar pauses


Song Structure

Gtr II Part 1 + Gtr I - once
Gtr II Part 2 + Gtr I - once
Gtr II Part 3 + Gtr I - once
Gtr II Part 3 + Gtr I + Gtr III Part 1 - once
Gtr II Part 3 + Gtr I + Gtr III Part 2 - 4 times
Gtr I alone - once

And end in:

|---0---|
|---0---|
|---0---|
|---2---|
|---2---|
|---0---|

If you have any corrections or suggestions send them to
lordlove_redcobra@hotmail.com(The Doomed)
tears_nacudrus@yahoo.com(Mikael Nacudrus)

  Visit MetalTabs.com for more metal tablature

bottom separator

Contact Us | Privacy Policy | Disclaimer | Legal Notice
Copyright © 2001-2014 MetalTabs.com. All Rights Reserved.