top separator

Home

Forum

What's New

Submit a Tab

FAQ

Links

Contact Us

Link to Us

MuSpy.com

MetalTabs.com logo

Bands

0-9

A

B

C

D

E

F

G

H

I

J

K

L

M

N

O

P

Q

R

S

T

U

V

W

X

Y

Z

Search

What

Where
 

Otyg - "Vilievandring" Guitar Tab

Plain Text Version
More Otyg Tabs

Hits: 4854
Rated: 4.00 out of 5 (5 votes)
Updated: 2002-07-17 15:33:47

 

Important note
This tab is available online because we obtained explicit permission from Otyg or their label.


#----------------------------------PLEASE NOTE---------------------------------#
#This file is the author's own work and represents their interpretation of the #
#song. You may only use this file for private study, scholarship, or research. #
#Unless specified otherwise, this is NOT an official tab from the band members.#
#------------------------------------------------------------------------------#

  Visit MetalTabs.com for more metal tablature
  
Otyg - Vilievandring
----------------------

Album: Sagovindirs Boning
tabbed by: gyrospitath@gmx.de


Riff 1:

 |Gitarre 1 & 2
E|-------------------------|---------------------------|
H|-------------------------|---------------------------|
G|-------------------------|---------------------------|
D|-9---9-9---9-5-----------|-4---4-4---7-5-------------|
A|-9---9-9---7-5-----------|-4---4-4---7-5-------------|
E|-7---7-7---7-3-----------|-2---2-2---5-3-------------|


 |Gitarre 1 & 2
E|-------------------------|---------------------------|
H|-------------------------|---------------------------|
G|-------------------------|---------------------------|
D|-2---4-5---7-9---9-9---4-|-4---9-8---4-9-------------|
A|-2---4-5---7-9---9-9---4-|-4---9-8---4-9-------------|
E|-0---2-3---5-7---6-6---2-|-2---7-6---2-7-------------|


 |Gitarre 1 & 2
E|-------------------------|---------------------------|
H|-------------------------|---------------------------|
G|-------------------------|---------------------------|
D|-9---9-9---9-5-----------|-4---4-4---7-5-------------|
A|-9---9-9---7-5-----------|-4---4-4---7-5-------------|
E|-7---7-7---7-3-----------|-2---2-2---5-3-------------|


 |Gitarre 1 & 2
E|-------------------------|---------------------------|
H|-------------------------|---------------------------|
G|-------------------------|---------------------------|
D|-----9-----8-----4-------|-7-7---5---4-2-------------|
A|-----9-----8-----4-------|-7-7---5---4-2-------------|
E|-0---7---0-6---0-2-------|-5-5---3---2-0-------------|

Das 2x


Riff 1.2:

 |Gitarre 1 & 2
E|-------------------------|---------------------------|
H|-------------------------|---------------------------|
G|-------------------------|---------------------------|
D|-9---9-9---9-5-----------|-4---4-4---7-5-------------|
A|-9---9-9---7-5-----------|-4---4-4---7-5-------------|
E|-7---7-7---7-3-----------|-2---2-2---5-3-------------|


 |Gitarre 1 & 2
E|-------------------------|---------------------------|
H|-------------------------|---------------------------|
G|-------------------------|---------------------------|
D|-2---4-5---7-9---9-9---4-|-4---9-8---4-9-------------|
A|-2---4-5---7-9---9-9---4-|-4---9-8---4-9-------------|
E|-0---2-3---5-7---6-6---2-|-2---7-6---2-7-------------|


 |Gitarre 1 & 2
E|-------------------------|---------------------------|
H|-------------------------|---------------------------|
G|-------------------------|---------------------------|
D|-9---9-9---9-5-----------|-4---4-4---7-5-------------|
A|-9---9-9---7-5-----------|-4---4-4---7-5-------------|
E|-7---7-7---7-3-----------|-2---2-2---5-3-------------|


 |Gitarre 1
E|-----------------------|---------------------------|
H|-----------------------|---------------------------|
G|-----------------------|---------------------------|
D|------------8----------|-7-7---5---4-2-------------|
A|------------8-------4--|-7-7---5---4-2-------------|
E|-0--(7)---0-6---0-2----|-5-5---3---2-0-------------|
 |
 |Gitarre 1 & 2
E|-------------------------|---------------------------|
H|-------------------------|---------------------------|
G|-------------------------|---------------------------|
D|--------------------4----|-7-7---5---4-2-------------|
A|-----------(8)------4----|-7-7---5---4-2-------------|
E|-0--(7)---0-------0-2----|-5-5---3---2-0-------------|

Und das auch 2x

Riff 2:

 |Gitarre 1
E|-------------------|---------------|-------------------|-----------------|
H|-------------------|---------------|-------------------|-----------------|
G|-------------------|---------------|-------------------|-----------------|
D|-----10-7----------|-5--5--7-4--4--|-----10-7----------|-5--7-5----------|
A|-7----------9--9---|---------------|-7----------9--9---|---------7-9--9--|
E|-------------------|---------------|-------------------|-----------------|
 |
 |Gitarre 2 (clean)
E|-------7---7-7-----|---------9----9--9---|-------7---7-7-----|---------9----9--9---|
H|-8---8-8---8-8-----|-8----8--10---10-10--|-8---8-8---8-8-----|-8----8--10---10-10--|
G|-9---9-9---9-9-----|-9----9--11---11-11--|-9---9-9---9-9-----|-9----9--11---11-11--|
D|-9---9-9---9-9-----|-10---10-11---11-11--|-9---9-9---9-9-----|-10---10-11---11-11--|
A|-7---7-7---7-7-----|-10---10-9----9--9---|-7---7-7---7-7-----|-10---10-9----9--9---|
E|-------------------|-8----8--------------|-------------------|-8----8--------------|


 |Gitarre 1
E|-------------------|---------------|-------------------|----------------------|
H|-------------------|---------------|-------------------|----------------------|
G|-------------------|---------------|-------------------|----------------------|
D|-----10-7----------|-5--5--7-4--4--|-----10-7----------|----------------------|
A|------------9--9---|---------------|-7----------9--9---|-10---9-10-9---7------|
E|-------------------|---------------|-------------------|----------------------|
 |
 |Gitarre 2 (clean)
E|-------7---7-7-----|---------9----9--9---|-------7---7-7-----|---------------------|
H|-8---8-8---8-8-----|-8----8--10---10-10--|-8---8-8---8-8-----|-5---7---8-----------|
G|-9---9-9---9-9-----|-9----9--11---11-11--|-9---9-9---9-9-----|-5---7---9-----------|
D|-9---9-9---9-9-----|-10---10-11---11-11--|-9---9-9---9-9-----|-5---7---9-----------|
A|-7---7-7---7-7-----|-10---10-9----9--9---|-7---7-7---7-7-----|-3---5---7-----------|
E|-------------------|-8----8--------------|-------------------|---------------------|

Ebenfalls 2x

Dann wieder Riff 1.2 und Riff 2

Riff 3:

 |Gitarre 1 & 2
E|-------------------|----------------------|-------------------|----------------|
H|-------------------|----------------------|-------------------|----------------|
G|-----------4---4---|----------------------|-----------4---4---|----------------|
D|-----------4---4---|----2------4----5--5--|-----------4---4---|-3-5-3-2----2---|
A|-3--5-3--0-2---2---|----------------------|-3--5-3--0-2---2---|----------2-----|
E|-------------------|-0----0--0----0-------|-------------------|----------------|

Dies 2x
Dann Gitarre 1 weiter und Gitarre 2:

 |Gitarre 2
E|-------------------|----------------------|-------------------|----------------|
H|-------------------|----------------------|-------------------|----------------|
G|-----------4---4---|----------------------|-----------4---4---|----------------|
D|-----------4---4---|----5------7----9--9--|-----------4---4---|-9-10-9-9--7-9--|
A|-3--5-3--0-2---2---|----------------------|-3--5-3--0-2---2---|----------------|
E|-------------------|-0----0--0----0-------|-------------------|----------------|

natürlich auch 2x

Nun wieder Riff 1:

 |Gitarre 1
E|-------------------------|---------------------------|
H|-------------------------|---------------------------|
G|-------------------------|---------------------------|
D|-9---9-9---9-5-----------|-4---4-4---7-5-------------|
A|-9---9-9---7-5-----------|-4---4-4---7-5-------------|
E|-7---7-7---7-3-----------|-2---2-2---5-3-------------|
 |
 |Gitarre 2
E|-------------------------|
H|-------------------------|
G|-------------------------|
D|-9-----------------------|
A|-9-----------------------|
E|-7-----------------------|

 |Gitarre 1
E|-------------------------|---------------------------|
H|-------------------------|---------------------------|
G|-------------------------|---------------------------|
D|-2---4-5---7-9---9-9---4-|-4---9-8---4-9-------------|
A|-2---4-5---7-9---9-9---4-|-4---9-8---4-9-------------|
E|-0---2-3---5-7---6-6---2-|-2---7-6---2-7-------------|


 |Gitarre 1 & 2
E|-------------------------|---------------------------|
H|-------------------------|---------------------------|
G|-------------------------|---------------------------|
D|-9---9-9---9-5-----------|-4---4-4---7-5-------------|
A|-9---9-9---7-5-----------|-4---4-4---7-5-------------|
E|-7---7-7---7-3-----------|-2---2-2---5-3-------------|


 |Gitarre 1 & 2
E|-------------------------|---------------------------|
H|-------------------------|---------------------------|
G|-------------------------|---------------------------|
D|-----9-----8-----4-------|-7-7---5---4-2-------------|
A|-----9-----8-----4-------|-7-7---5---4-2-------------|
E|-0---7---0-6---0-2-------|-5-5---3---2-0-------------|

Und Riff 1 nochmal, diesmal normal
Dann wieder Riff 1.2 (2x)

Riff 4 (Mix aus 2 & 3):

 |Gitarre 1
E|-------------------|---------------|-------------------|-----------------|
H|-------------------|---------------|-------------------|-----------------|
G|-------------------|---------------|-------------------|-----------------|
D|-----10-7----------|-5--5--7-4--4--|-----10-7----------|-5--7-5----------|
A|-7----------9--9---|---------------|-7----------9--9---|---------7-9--9--|
E|-------------------|---------------|-------------------|-----------------|
 |
 |Gitarre 1 & 2
E|-------------------|----------------------|-------------------|-----------------|
H|-------------------|----------------------|-------------------|-----------------|
G|-----------4---4---|----------------------|-----------4---4---|-----------------|
D|-----------4---4---|----------------9-----|-----------4---4---|-9--10-9--7--9---|
A|-3--5-3--0-2---2---|----7------9----------|-3--5-3--0-2---2---|-----------------|
E|-------------------|-0----0--0----0-------|-------------------|-----------------|


 |Gitarre 1
E|-------------------|---------------|-------------------|----------------------|
H|-------------------|---------------|-------------------|----------------------|
G|-------------------|---------------|-------------------|----------------------|
D|-----10-7----------|-5--5--7-4--4--|-----10-7----------|----------------------|
A|------------9--9---|---------------|-7----------9--9---|-10---9-10-9---7------|
E|-------------------|---------------|-------------------|----------------------|
 |
 |Gitarre 1 & 2
E|-------------------|----------------------|-------------------|----------------|
H|-------------------|----------------------|-------------------|----------------|
G|-----------4---4---|----------------------|-----------4---4---|----------------|
D|-----------4---4---|----------------9-----|-----------4---4---|-3-5-3-2----2---|
A|-3--5-3--0-2---2---|----7------9----------|-3--5-3--0-2---2---|----------2-----|
E|-------------------|-0----0--0----0-------|-------------------|----------------|


 |Gitarre 1
E|-------------------|---------------|-------------------|-----------------|
H|-------------------|---------------|-------------------|-----------------|
G|-------------------|---------------|-------------------|-----------------|
D|-----10-7----------|-5--5--7-4--4--|-----10-7----------|-5--7-5----------|
A|-7----------9--9---|---------------|-7----------9--9---|---------7-9--9--|
E|-------------------|---------------|-------------------|-----------------|
 |
 |Gitarre 1 & 2
E|-------------------|----------------------|-------------------|-----------------|
H|-------------------|----------------------|-------------------|-----------------|
G|-----------4---4---|----------------------|-----------4---4---|-----------------|
D|-----------4---4---|----5------7----9-----|-----------4---4---|-9--10-9--7--9---|
A|-3--5-3--0-2---2---|----------------------|-3--5-3--0-2---2---|-----------------|
E|-------------------|-0----0--0----0-------|-------------------|-----------------|


 |Gitarre 1
E|-------------------|---------------|-------------------|----------------------|
H|-------------------|---------------|-------------------|----------------------|
G|-------------------|---------------|-------------------|---------------9------|
D|-----10-7----------|-5--5--7-4--4--|-----10-7----------|---------------9------|
A|------------9--9---|---------------|-7----------9--9---|-10---9-10-9---7------|
E|-------------------|---------------|-------------------|----------------------|
 |
 |Gitarre 1 & 2
E|-------------------|----------------------|-------------------|----------------|
H|-------------------|----------------------|-------------------|----------------|
G|-----------4---4---|----------------------|-----------4---4---|------------9---|
D|-----------4---4---|----5------7----9-----|-----------4---4---|------------9---|
A|-3--5-3--0-2---2---|----------------------|-3--5-3--0-2---2---|-7-9-7-6----7---|
E|-------------------|-0----0--0----0-------|-------------------|----------7-----|

  Visit MetalTabs.com for more metal tablature

bottom separator

Contact Us | Privacy Policy | Disclaimer | Legal Notice
Copyright © 2001-2014 MetalTabs.com. All Rights Reserved.