top separator

Home

Forum

What's New

Submit a Tab

FAQ

Links

Contact Us

Link to Us

MuSpy.com

MetalTabs.com logo

Bands

0-9

A

B

C

D

E

F

G

H

I

J

K

L

M

N

O

P

Q

R

S

T

U

V

W

X

Y

Z

Search

What

Where
 

Empyrium - "Abendrot" Guitar Tab

Plain Text Version
More Empyrium Tabs

Hits: 4380
Rated: 2.75 out of 5 (4 votes)
Updated: 2002-07-17 15:27:08

 

Important note
We did our best to reach Empyrium and ask for their permission to publish this tab. Unfortunately they did not respond to our requests or we could not find a way to contact them. This tab is available online until Empyrium tells us to take it down.


#----------------------------------PLEASE NOTE---------------------------------#
#This file is the author's own work and represents their interpretation of the #
#song. You may only use this file for private study, scholarship, or research. #
#Unless specified otherwise, this is NOT an official tab from the band members.#
#------------------------------------------------------------------------------#

  Visit MetalTabs.com for more metal tablature
  
Empyrium - Abendrot
---------------------

Album: Where at Night the Wood Grouse plays
tabbed by: gyrospitath@gmx.de


Die blutrote Sonne neigt sich dem Horizont...

Riff 1:

 |Gitarre 1
E|---------------------------------|---------------------------------|
H|-------0---------------0---------|-------0---------------0---------|
G|-----6-------6-------4-------4---|-----6-------6-------4-------4---|
D|---7-------7---7---0-------0---0-|---7-------7---7---0-------0---0-|
A|-0-------------------------------|-0-------------------------------|
E|-----------------3---------------|-----------------3---------------|
 |
 |
 |Gitarre 2 (mit Schlusston)
E|---------------------------------|---------------------------------|---|
H|---------------------------------|-----------------5---------------|---|
G|-6-----7-7-6-6-4-4-----2-4-----4-|-6-----7-7-6-6-7---7-6-7-6-----4-|-4-|
D|---------------------------------|---------------------------------|---|
A|---------------------------------|---------------------------------|---|
E|---------------------------------|---------------------------------|---|

Dies 4x (plus 1x beim einfaden)



Riff 2:

 |Gitarre 1
E|---------------------------------|-----------------------------------|
H|---------------------------------|-----------------------------------|
G|-----4-------4-------2-------2---|-----0-------020-0-----5---4-------|
D|---0---0---0---0---0---0---0---0-|---0---0---0---------0---0---0---0-|
A|---------------------------------|-----------------------------------|
E|-3-------3-------3-------3-------|-0-------0---------0-----------0---|

Dies 2x
Dann wieder 4x Riff 1 (Gitarre 2 beim ersten mal ohne den ersten Ton)
Und noch 2x Riff 2

Riff 3:

 |Gitarre 1
E|---------------------------------|---------------------------------|
H|-------0-------------------------|-------0-------------------------|
G|-----6---------------------------|-----4---------------------------|
D|---7-----------------------------|---0-----------------------------|
A|-0-------------------------------|---------------------------------|
E|---------------------------------|-3-------------------------------|
 |
 |Gitarre 2
E|---------------------------------|---------------------------------|
H|---------------------------------|---------------------------------|
G|-----------------------6-7-------|------------------------7-6------|
D|---------------------------------|---------------------------------|
A|---------------------------------|---------------------------------|
E|---------------------------------|---------------------------------|
 |
 |Gitarre 3
E|---------------------------------|---------------------------------|
H|---------------------------------|---------------------------------|
G|-----------------------7-9-------|------------------------9-7------|
D|---------------------------------|---------------------------------|
A|---------------------------------|---------------------------------|
E|---------------------------------|---------------------------------|

Auch dies 2x

Outro:

 |Gitarre 1
E|---------------------------------|
H|---------------------------------|
G|-----4-------4-------4-------4---|
D|---0---0---0---0---0---0---0---0-|
A|---------------------------------|
E|-3-------3-------3-------3-------|

bis zum Ende...

  Visit MetalTabs.com for more metal tablature

bottom separator

Contact Us | Privacy Policy | Disclaimer | Legal Notice
Copyright © 2001-2014 MetalTabs.com. All Rights Reserved.