top separator

Home

Forum

What's New

Submit a Tab

FAQ

Links

Contact Us

Link to Us

MetalTabs.com logo

Bands

0-9

A

B

C

D

E

F

G

H

I

J

K

L

M

N

O

P

Q

R

S

T

U

V

W

X

Y

Z

Search

What

Where
 

Stormtroopers Of Death - "Fuck The Middle East" Guitar Tab

Plain Text Version
More Stormtroopers Of Death Tabs

Hits: 7476
Rated: 2.50 out of 5 (16 votes)
Updated: 2002-07-17 15:01:27

 

Important note
We did our best to reach Stormtroopers Of Death and ask for their permission to publish this tab. Unfortunately they did not respond to our requests or we could not find a way to contact them. This tab is available online until Stormtroopers Of Death tells us to take it down.


#----------------------------------PLEASE NOTE---------------------------------#
#This file is the author's own work and represents their interpretation of the #
#song. You may only use this file for private study, scholarship, or research. #
#Unless specified otherwise, this is NOT an official tab from the band members.#
#------------------------------------------------------------------------------#

  Visit MetalTabs.com for more metal tablature
  
Band:  S.O.D. (Stormtroopers of Death)
Album: Speak English Or Die
Song:  Fuck the Middle East

Copyright (c)  Megaforce Records 1985
Version 1.0 - April 21, 2002

Transcribed By: king of killing
Email:          scare138@earthlink.net


.  - palm mute           /  - slide up to
\  - slide down to       ~  - vibrato
h  - hammer on           b  - Bend
p  - pull off            Suffixes for bend
t  - tap                 f  - full bend    h - half bend
ph - pinched harmonic    q  - quarter bend t - tap bend
*  - see comment         ^  - Hold bend    r release bend
x  - Stuccatto           ~  - vibrato bend
,  - slight palm mute    () - ghost note, sustained note
"  - tremolo note        <> - Trill

Tunning E B G D A E

|-------------------------------------------------------------------|
|-------------------------------------------------------------------|
|-------------------------------------------------------------------|
|------------------------3-4---5------------------------------------|
|2-2-2-2-2-2-2-2-2-2-2-2-1-2-5-3------------------------------------|
|0-0-0-0-0-0-0-0-0-0-0-0-----3--------------------------------------|

|-------------------------------------------------------------------|
|-------------------------------------------------------------------|
|-------------------------------------------------------------------|
|-------------------------------------------------------------------|
|-----------------------1h2-3---------------------------------------|
|00000000000000000000000---3----------------------------------------|

  Visit MetalTabs.com for more metal tablature

bottom separator

Contact Us | Privacy Policy | Disclaimer | Legal Notice
Copyright © 2001-2014 MetalTabs.com. All Rights Reserved.