top separator

Home

Forum

What's New

Submit a Tab

FAQ

Links

Contact Us

Link to Us

MetalTabs.com logo

Bands

0-9

A

B

C

D

E

F

G

H

I

J

K

L

M

N

O

P

Q

R

S

T

U

V

W

X

Y

Z

Search

What

Where
 

Celtic Frost - "Into the Crypts of Rays" Guitar Tab

Plain Text Version
More Celtic Frost Tabs

Hits: 12519
Rated: 3.67 out of 5 (12 votes)
Updated: 2002-07-15 13:49:21

 

Important note
This tab is available online because we obtained explicit permission from Celtic Frost or their label.


#----------------------------------PLEASE NOTE---------------------------------#
#This file is the author's own work and represents their interpretation of the #
#song. You may only use this file for private study, scholarship, or research. #
#Unless specified otherwise, this is NOT an official tab from the band members.#
#------------------------------------------------------------------------------#

  Visit MetalTabs.com for more metal tablature
  
                                    Into the Crypts of Rays
                                        (Celtic Frost)


written by Tom Gabriel Fischer on the album "Morbid Tales"

Tabbed by Steve "Infiltraitor"
contact:infiltraition@hotmail.com

Regular tuning

    (intro)          riff 1  play X2
E-----------------------------------------------------------------------
A-----------------------------------------------------------------------
D-----------------------------------------------------------------------
G---4-4-4-4--2---4-4-4-4--2---------------------------------------------
B---2-2-2-2--0---2-2-2-2--0---------------------------------------------
E-----------------------------------------------------------------------


                      riff 2        play X1
E-----------------------------------------------------------------------
A-----------------------------------------------------------------------
D-----------------------------------------------------------------------
G--2-4------2-4---7----2-4------2-4---7---------------------------------
B--0-2--3---0-2---5----0-2--3---0-2---5---------------------------------
E-------1-------------------1-------------------------------------------


     (verse)          riff 3        play X4
E-----------------------------------------------------------------------
A-----------------------------------------------------------------------
D-----------------------------------------------------------------------
G-----------------------------------------------------------------------
B--4-------------------------------2-2-2--4-----------------------------
E--2-2-2-2-2-2-2-2-2-2-2-2-2-2-2-2-0-0-0--2-----------------------------



      (pre Chorus)     riff 4       play X3                 ending play X1
E-----------------------------|------------------------------------------
A-----------------------------|------------------------------------------
D-----------------------------|------------------------------------------
G--4-----------------5-6-7----|4-----------7-6-5-2-----------------------
B--2-2-2-2-2-2-2-2-2-3-4-5----|2-2-2-2-2-2-5-4-3-0-0-0-0-0-0-0-0-0-------
E-----------------------------|------------------------------------------



       (Chorus)         riff 5       play X3                     ending play
X1
E-----------------------------|------------------------------------------
A-----------------------------|------------------------------------------
D-----------------------------|------------------------------------------
G--5-4-3-4-5-2----------------|--5-4-3--4-4------------------------------
B--3-2-1-2-3-0-0-0-0-0-0-0-0--|--3-2-1--2-2-------------------------------
E-----------------------------|------------------------------------------



                         riff 6        play X4 let ring on 4th time
E-----------------------------------------------------------------------
A-----------------------------------------------------------------------
D-----------------------------------------------------------------------
G---------------9--9--9-------------------------------------------------
B--2-2-2-2-2-2--7--7--7-------------------------------------------------
E--0-0-0-0-0-0----------------------------------------------------------



                          riff 7  (slowed down section)
E------------------------------------------------------------------------
A------------------------------------------------------------------------
D------------------------------------------------------------------------
G-----4------5-----4------5--5-------------------------------------------
B-----2------3-----2------3--3-------------------------------------------
E--0-0---0-0----0-0---0-0------------------------------------------------



                          riff 8
E-----------------------------------------------------------------------
A-----------------------------------------------------------------------
D-----------------------------------------------------------------------
G-----------------------------------------------------------------------
B--2-2-2--5----2-2-2--7---2-2-2---9-8-7---------------------------------
E--0-0-0--3----0-0-0--5---0-0-0---7-6-5---------------------------------


Play intro Riff 1 as pre solo riff

riff 6    backing for solo

back to intro riff

play through last two verses and choruses as usual

finally end on riff 6

  Visit MetalTabs.com for more metal tablature

bottom separator

Contact Us | Privacy Policy | Disclaimer | Legal Notice
Copyright © 2001-2014 MetalTabs.com. All Rights Reserved.