top separator

Home

Forum

What's New

Submit a Tab

FAQ

Links

Contact Us

Link to Us

MuSpy.com

MetalTabs.com logo

Bands

0-9

A

B

C

D

E

F

G

H

I

J

K

L

M

N

O

P

Q

R

S

T

U

V

W

X

Y

Z

Search

What

Where
 

The Haunted - "Bullet Hole" Guitar Tab

Plain Text Version
More The Haunted Tabs

Hits: 8381
Rated: 3.50 out of 5 (2 votes)
Updated: 2002-05-27 12:28:39

 

By:

death8699

sendpm.gif

email.gif

Important note
This tab is available online because we obtained explicit permission from The Haunted or their label.


#----------------------------------PLEASE NOTE---------------------------------#
#This file is the author's own work and represents their interpretation of the #
#song. You may only use this file for private study, scholarship, or research. #
#Unless specified otherwise, this is NOT an official tab from the band members.#
#------------------------------------------------------------------------------#

  Visit MetalTabs.com for more metal tablature
  
 --Check out Death8699.com for more Metal tablature--

             T H E  H A U N T E D  -  B U L L E T  H O L E
                       From the Album THE HAUNTED
                     Copyright 1998 EARACHE RECORDS

                         Version 1.1 - MAY '02

Transcribed by: Juan P
Version 1.1 by: death8699

For Questions, Comments, Newest Version, or Corrections contact
    Juan P: at jscgjc@infovia.com.ar
 death8699: at ArchEnemies@aol.com

.  - palm mute                  /  - slide up to
\  - slide down to              ~  - vibrato
"  - tremelo picking           ( ) - ghost note
b  - bend                       h  - hammer-on
fb - full bend (1 step)         p  - pull-off
hb - half bend (1/2 step)       r  - release a bend
t  - tapping                    ah - artificial harmonic

Tune every string down 1/2 step

--BULLET HOLE--

[Intro]
[---------------------------|------------------------------]
[---------------------------|------------------------------]
[*--------------------------|-----------------------------*]GTR 1
[*------------------7-6_7_6-|-----------------------------*]
[--7--8-5-7--7--8-5----h-p--|-7--8-5-7---------------------]
[---00-0-0-00-00-0-0--------|--00-0-0-0-8-7-5-4-5-4_5_4-0--]
    .. . . .. .. . .           .. . . . . . . . .  h p  .

[---------------------------|------------------------------]
[---------------------------|------------------------------]
[*--------------------------|-----------------------------*]GTR 2
[*--------------------------|-----------5-4---------------*]
[---------------------------|-----------3-2-7-6-7-6/7\6-2--]
[---------------------------|---------------5-4-5-4/5\4-0--]
                                        . . . . .  sl's

[---------------------------]
[---------------------------]
[*-------------------------*]GTR 1
[*-------------------7-6---*]
[--7--8-5-7--7--8-5--7-6----]
[---00-0-0-00-00-0-0-5-4----]
    .. . . .. .. . .   *

[---------------------------]
[---------------------------]
[*-------------------------*]GTR 2
[*-2------2------2---7-6---*]
[--2------2------2---7-6----]
[--0------0------0---5-4----]
                       *


[Next]
[---------------------------|------------------------------]
[---------------------------|------------------------------]
[*--------------------------|-----------------------------*]BOTH
[*------------------7-6_7_6-|-----------------------------*]GTR'S
[--7--8-5-7--7--8-5----h-p--|-7--8-5-7---------------------]
[---00-0-0-00-00-0-0--------|--00-0-0-0-8-7-5-4-5-4_5_4-0--]
    .. . . .. .. . .           .. . . . . . . . .  h p  .

[---------------------------|------------------------------]
[---------------------------|------------------------------]
[*--------------------------|-----------------------------*]BOTH
[*------------------7-6_7_6-|-----------5-4-3-2-----------*]GTR'S
[--7--8-5-7--7-8-5-----h-p--|7---8-5-7--3-2-1-0------------]
[---00-0-0-00-0-0-0---------|--00-0-0-0-------*------------]
    .. . . .. . . .            .. . . .


[Riff A]
[--------------------------|-----------------------------]
[--------------------------|-----------------------------]
[*-------------------------|----------------------------*]BOTH
[*-------------------------|----------------------------*]GTR'S
[--7--8-5-7----------------|-7--8-5-7--------------------]
[---00-0-0-0-000-0-0-000-0-|--00-0-0-0-8-7-5-4-5-4_5_4-0-]
    .. . . . ... . . ... .    .. . . . . . . . .  h p  .

[--------------------------|-----------------------------]
[--------------------------|-----------------------------]
[*-------------------------|----------------------------*]BOTH
[*-------------------------|----------------------------*]GTR'S
[--7--8-5-7----------------|-7--8-5-7--------------------]
[---00-0-0-0-000-0-0-000-0-|--00-0-0-0-8-7-5-4-5-4_5_4-0-]
    .. . . . ... . . ... .    .. . . . . . . . .  h p  .


[Riff B]
[-----------------|----------------|-----------------]
[-----------------|----------------|-----------------]
[*----------------|----------------|----------------*]BOTH
[*---2-----1------|---2-----3------|---2-----1------*]GTR'S
[----2-----1------|---2-----3------|---2-----1-------]
[--0---0-0---0431-|-0---0-0---0532-|-0---0-0---0431--]
   .   . .   ....   .   . .   ....   .   . .   ....
 _________________ ________________
|1.               |2.              |
[-----------------|----------------]
[-----------------|----------------]
[*----------------|---------------*]BOTH
[*----------------|---------------*]GTR'S
[----3-3-----5/8--|-2-5---5-4-3(3)-]
[--0---1--0--3/6--|-0-3-0-3-2-1(1)-]
   .      .   sl        .


Play Riff A once
Play Riff B once (Last time, second ending sub Fill 1)


[Fill 1]
[--------------------]
[--------------------]
[*------------------*]BOTH
[*------------------*]GTR'S
[----------2-(2)-----]
[--0-4-3-1-0-(0)-----]
   . . . .


[Riff C]
[----------------------------------|----------------------------------]
[----------------------------------|----------------------------------]
[*-----------------7-9-10----------|-----------------7-9-10----------*]BOTH
[*-------------------------9\8-5/--|-------------------------9\8-5\4-*]GTR'S
[--2-2-2-2-2-2-2-2-5-7-8-----------|-2-2-2-2-2-2-2-2-5-7-8------------]
[--0-0-0-0-0-0-0-0-------0-7\6-3/--|-0-0-0-0-0-0-0-0-------0-7\6-3\2--]
   * . . . . . . .       .  sl  sl   . . . . . . . .       .  sl  sl

[----------------------------------|----------------------------------]
[----------------------------------|----------------------------------]
[*---------------------------------|---------------------------------*]BOTH
[*---------------------------------|---------------------------------*]GTR'S
[--4/5-4-----3---4/5\4/5---7/8\7\5-|-4------3----4/5\4/5--------------]
[--2/3-2-2-2---2-2/3\2/3-0-5/6\5\3-|-2--2-2---2--2/3\2/3-0-6-5-3-2~---]
    sl   . .   .  sl's   .  sl's        . .   .   sl's   . . . .


[Riff D]
[--------------------------|---------------------------]
[--------------------------|---------------------------]
[*-------------------------|--------------------------*]BOTH
[*-------------------------|--------------------------*]GTR'S
[--2-----------------------|-2-------2-----------------]
[--0-0-0-6-0-5-0-1_0-0-0-0-|-0-0-0-0-0-0-0-6-0-5-0-1_0-]
     . .   .   .  p  . . .     . . .   . .   .   .  p
 __________________________ ___________________________
|1.                        |2.                         |
[--------------------------|---------------------------]
[--------------------------|---------------------------]
[*-------------------------|--------------------------*]BOTH
[*-------------------------|-5---4---3---2------------*]GTR'S
[--------------------------|-3---2---1---0-------------]
[--8--7--5--4--4__5__4-----|---------------------------]
   .  .  .  .    h  p


Play Riff A once
Play Riff B once
Play Riff C 2 times


[Riff E]
[-------------------------|------------------------]
[-------------------------|------------------------]
[*-4--------4--------4----|-3--------3--------3-3-*]BOTH
[*-2--------2--------2----|-2--------2--------2-2-*]GTR'S
[--2--------2--------2----|-1--------1--------1\0--]
[--0--0--0--0--0--0--0--0-|-0--0--0--0--0--0--0-0--]
      .  .     .  .     .      .  .     .  .   sl

[-------------------------|------------------------]
[-------------------------|------------------------]
[*-4--------4--------4----|-3--------3--------3-3-*]BOTH
[*-2--------2--------2----|-2--------2--------2-2-*]GTR'S
[--2--------2--------2----|-1--------1--------1\0--]
[--0--0--0--0--0--0--0--0-|-0--0--0--0--0--0--0-0--]
      .  .     .  .     .      .  .     .  .   sl

[-------------------------|------------------------]
[-------------------------|------------------------]
[*------------------------|-6--------6--------6-6-*]BOTH
[*-5--------5--------5----|-5--------5--------5-5-*]GTR'S
[--5--------5--------5----|-4--4--4--4--4--4--4\3--]
[--3--3--3--3--3--3--3--3-|-3--3--3--3--3--3--3-3--]
      .  .     .  .     .      .  .     .  .   sl
 _________________________ ________________________
|1.                       |2.                      |
[-------------------------|------------------------]
[-------------------------|------------------------]
[*-----------------6------|-----------------------*]BOTH
[*-5-----5-----5---5------|-5-----5---------------*]GTR'S
[--5-----5-----5---4------|-5-----5------454-------]
[--3-3-3-3-3-3-3-3-3------|-3-3-3-3-3-0-3---65352~-]
     . .   . .   .            . .   . .


[Riff F]
[---------------------------|--------------------------------]
[---------------------------|--------------------------------]
[*--------------------------|-------------------------------*]BOTH
[*-2-----2-2-----8-----8-8--|----2-----2-2-----8-----8-8----*]GTR'S
[--2-----2-2-----8-----7-7--|----2-----2-2-----8-----7-7-----]
[--0--0--0-0--0--6--6--6-6--|-0--0--0--0-0--0--6--6--6-6--0--]
      .       .     .         .     .       .     .       .

[---------------------------|--------------------------------]
[---------------------------|--------------------------------]
[*---------------6-----6-6--|-------------------------------*]BOTH
[*-5-----5-5-----6-----5-5--|----5-----5-5------------------*]GTR'S
[--5-----5-5-----4--4--4-4--|----5-----5-5---4-5-4-----------]
[--3--0--3-3--0-------------|-0--3--0--3-3-0-------653532_0--]
      .       .     .         .     .      .             p


Play Riff F once


[Riff G]
[--------------------------|------------------------]
[--------------------------|------------------------]
[*-------------------------|----------5----------$-*]GTR 1
[*-------------------------|----------5------------*]
[--7--8-5-7--5-7-8--3-2----|-7--8-5-7-7-------------]
[---00-0-0-------------5-3-|--00-0-0--*-------------]
    .. . .                    .. . .

* Hold until $

[--------------------------|--------------------78--]
[--------------------------|-----------------910----]
[*-----------7-9-10-5-4----|------------7910-------*]GTR 2
[*---------------------7-5-|-----------------------*]
[--7--8-5-7----------------|-7--8-5-7-7-------------]
[---00-0-0-----------------|--00-0-0----------------]
    .. . .                    .. . .


Play Riff G 3 times


[Lead]
[--------------------------------------------------------]
[--------------------------------------------------------]
[*-9~-10~-9~--7-----------------------------------------*]
[*--------------10-9-6~---6-7-9-10-9-7--9~-10-9-7-6-----*] GTR 3
[---------------------------------------------------8-7--]
[-----------------------------------------------------0--]


[Riff H]
[------------------|-------------------]
[------------------|-------------------]
[*-----------------|------------------*]BOTH
[*-----------------|------------------*]GTR'S
[--222-222-222-222-|-333333-33333-333--]
[--000-000-000-000-|-111111-11111-111--]
   ... ... ... ...   ...... ..... ...

[------------------|-------------------]
[------------------|-------------------]
[*-----------------|------------------*]BOTH
[*-----------------|------------------*]GTR'S
[--222-222-222-222-|-333333-33333-333--]
[--000-000-000-000-|-111111-11111-111--]
   ... ... ... ...   ...... ..... ...


[Riff I]
[-----------------------|------------------------]
[-----------------------|------------------------]
[*----------------------|-----------------------*]BOTH
[*----------------------|-----------------------*]GTR'S
[----8---7---10---8---7-|-8_7-8-8~-----8--7---10-]
[--0---0---0----0---0---|--p---------0--0---0----]
   .   .   .    .   .                .  .   .
 _______________________ ________________________
|1-3.                   |4.                      |
[-----------------------|------------------------]
[-----------------------|------------------------]
[*----------------------|-----------------------*]BOTH
[*----------------------|-5----6----6----5----3-*]GTR'S
[----11--10-11_10-11_10-|-5----6----6----5----3--]
[--0---0------p-----p---|-3----4----4----3----1--]
   .   .


Play Riff C 2 times
Play Riff H 1/2 time


[Riff H.2]
[------------------|---------------------------]
[------------------|---------------------------]
[*-----------------|--------------------------*]BOTH
[*-----------------|--------------------------*]GTR'S
[--222-222-222-222-|-3333333-3~-33333-3~-33-3~-]
[--000-000-000-000-|-1111111-ah-11111-ah-11-ah-]
   ... ... ... ...   .......    .....    ..


Play Riff I once


[End]
[-----]
[-----]
[*---*]BOTH
[*-2-*]GTR'S
[--2--]
[--0--]

 --Check out Death8699.com for more Metal tablature--

  Visit MetalTabs.com for more metal tablature

bottom separator

Contact Us | Privacy Policy | Disclaimer | Legal Notice
Copyright © 2001-2014 MetalTabs.com. All Rights Reserved.