top separator

Home

Forum

What's New

Submit a Tab

FAQ

Links

Contact Us

Link to Us

MetalTabs.com logo

Bands

0-9

A

B

C

D

E

F

G

H

I

J

K

L

M

N

O

P

Q

R

S

T

U

V

W

X

Y

Z

Search

What

Where
 

Rellik - "Thy Kingdom Crushed" Guitar Tab

Plain Text Version
More Rellik Tabs

Hits: 4097
Rated: 4.20 out of 5 (5 votes)
Updated: 2005-09-28 08:31:20

 

By:

death8699

sendpm.gif

email.gif

Important note
This tab is available online because we obtained explicit permission from Rellik or their label.


#----------------------------------PLEASE NOTE---------------------------------#
#This file is the author's own work and represents their interpretation of the #
#song. You may only use this file for private study, scholarship, or research. #
#Unless specified otherwise, this is NOT an official tab from the band members.#
#------------------------------------------------------------------------------#

  Visit MetalTabs.com for more metal tablature
  
RELLIK - THY KINGDOM CRUSHED
                     From Demo BORNE OF WIND OF WAR

                      Version 1.1 - SEPTEMBER 2005

Transcribed by: Death8699

For Questions, Comments, Newest Version, or Corrections contact
 Death8699: at MethylinInfo@aol.com

Check Out Death8699.com, With More Transcriptions On It:
 http://www.death8699.com/

Check Out Rellik's Official Page On The Web:
 http://www.rellik.cc/

..  - palm mute          /  - slide up to
 \  - slide down to      ~  - vibrato
 h  - hammer on          b  - bend
 p  - pull off            Suffixes for bend
                          ph - pinch harmonic
                           f - full bend    h - half bend
*  - see comment           r - release      t - tap bend
X  - percussion mute       ~ - vibrato bend
@  - slight palm mute     () - ghost note, sustained note

Tune Gtr to [D,G,C,F,A,D]

--THY KINGDOM CRUSHED--

 |Riff A|
||----------------------|---------------------||
||----------------------|---------------------||
||:---------------------|---------------------||[Gtr.1&2]
||:---------------------|---------------------||
||--3----2----5----6----|-3----2----5----6----||
||--1----0----3----4----|-1----0----3----4----||
||  .    .    .    .      .    .    .    .    ||
||                                 [End Riff A]|
||----------------------|---------------------||
||----------------------|---------------------||
||----------------------|--------------------:||[Gtr.1&2]
||----------------------|--------------------:||
||--3----2----5----6----|-3----2----5----6----||
||--1----0----3----4----|-1----0----3----4----||
    .    .    .    .      .    .    .    .


 |Riff A.1|
||--------------------------|-------------------------||
||--------------------------|-------------------------||
||:-------------------------|-------------------------||
||:-------------------------|-------------------------||[Gtr.1&2]
||--5-5-3---2---6-6-5---3---|-5-5-3---2---6-6-5---3---||
||--3-3-1---0---4-4-3---1---|-3-3-1---0---4-4-3---1---||
||                                                    ||
||                                       [End Riff A.1]|
||--------------------------|-------------------------||
||--------------------------|-------------------------||
||--------------------------|------------------------:||[Gtr.1&2]
||--------------------------|------------------------:||
||--5-5-3---2---6-6-5---3---|-5-5-3---2---6-6-5---3---||
||--3-3-1---0---4-4-3---1---|-3-3-1---0---4-4-3---1---||


Repeat Riff A   one time.
Repeat Riff A.1 one time
Repeat Riff A   one time.


|Riff B|
|-----------------------------|------------------------------|
|-----------------------------|------------------------------|
|:----------------------------|------------------------------|[Gtr.1]
|:----------------------------|------------------------------|
|--7---777777777777777-10_8_7-|-7---7777777777777777-10_8_7--|
|------------------------p-p--|------------------------p-p---|
|                                                            |
|-----------------------------|------------------------------]
|-----------------------------|------------------------------]
|-----------------------------|------------------------------|[Gtr.2]
|--2--------------------------|-3--2-------------------------|
|--2--------------------------|-3--2-------------------------|
|--0--------------------------|-1--0-------------------------|

|-----------------------------|------------------------------|
|-----------------------------|------------------------------|
|-----------------------------|--------------7------5-------:|[Gtr.1]
|-----------------------------|--------------7------5-------:|
|--7---777777777777777-10_8_7-|-7---77777777-5------3--------|
|------------------------p-p--|------------------------------|
|                                                 [End Riff B]
|-----------------------------|------------------------------|
|-----------------------------|------------------------------|
|-----------------------------|--------------7------5--------|[Gtr.2]
|--2--------------------------|--------------7------5--------|
|--2--------------------------|--------------5------3--------|
|--0--------------------------|------------------------------|


Play Riff B a total of one time.


Repeat Riff B.1 a total of three times (*See Below Note).

 __________________________________________________________
|* = Note: Both Guitars play Riff B simultaneously with the|
|rest of the band!                                         |
|__________________________________________________________|


Repeat Riff A     a total of one time.
Repeat Riff A.1   a total of one time.
Repeat Riff A     a total of one time.
Repeat Riff B     a total of two times (*See Below Note).

 __________________________________________________________
|* = Guitars play in the same way as above but when doubled|
|Gtr.1 plays higher end notes indicated below while Gtr.2  |
|plays Riff B normally.                                    |
|__________________________________________________________|



|Riff B.1|
|-----------------------------|------------------------------|
|-----------------------------|------------------------------|
|:-9----9999999999999999-12109|-9----9999999999999999-12109--|[Gtr.1]
|:-------------------------pp-|-------------------------pp---|
|-----------------------------|------------------------------|
|-----------------------------|------------------------------|
|                                                            |
|-----------------------------|------------------------------|
|-----------------------------|------------------------------|
|:----------------------------|------------------------------|[Gtr.2]
|:----------------------------|------------------------------|
|--7---777777777777777-10_8_7-|-7---7777777777777777-10_8_7--|
|------------------------p-p--|------------------------p-p---|

|-----------------------------|------------------------------|
|-----------------------------|------------------------------|
|--9----9999999999999999-12109|-9----99999999\-/7~~~5~~~~~~~-|[Gtr.1]
|--------------------------pp-|--------------sl--------------|
|-----------------------------|------------------------------|
|-----------------------------|------------------------------|
|                                                            |
|-----------------------------|------------------------------|
|-----------------------------|------------------------------|
|-----------------------------|--------------7------5--------|[Gtr.2]
|-----------------------------|--------------7------5--------|
|--7---777777777777777-10_8_7-|-7---77777777-5------3--------|
|------------------------p-p--|------------------------------|

|--12---1212121212121212151312|-12--1212121212121212151312---|
|--------|______________|-p-p-|------|______________|-p-p----|
|----------[16th-notes]-------|--------[16th-notes]----------|[Gtr.1]
|-----------------------------|------------------------------|
|-----------------------------|------------------------------|
|-----------------------------|------------------------------|
|                                                            |
|-----------------------------|------------------------------|
|-----------------------------|------------------------------|
|-----------------------------|------------------------------|[Gtr.2]
|-----------------------------|------------------------------|
|--7---777777777777777-10_8_7-|-7---7777777777777777-10_8_7--|
|------------------------p-p--|------------------------p-p---|

|--12---1212121212121212151312|-12--12121212\10~~~~~8~~~~~~~~|
|--------|______________|-p-p-|------|______|----------------|
|----------[16th-notes]-------|-------[8th's]---------------:][Gtr.1]
|-----------------------------|-----------------------------:|
|-----------------------------|------------------------------|
|-----------------------------|------------------------------|
|                                                            |
|                                               [End Riff B.1]
|-----------------------------|------------------------------|
|-----------------------------|------------------------------|
|-----------------------------|--------------7------5-------:|[Gtr.2]
|-----------------------------|--------------7------5-------:|
|--7---777777777777777-10_8_7-|-7---77777777-5------3--------|
|------------------------p-p--|------------------------------|


[Band tacet]


Repeat Riff B four times.


|Riff C|
|-----------------------------------------------|
|-----------------------------------------------|
|:----------------------------------------------|Gtr.1&2]
|:----------------------------------------------|
|--3-----2-----6"--3-----3-----2-----6"--3------|
|--1-----0-----4"--1-----1-----0-----4"--1------|
|  .           .         .           .          |
|                                    [End Riff C]
|-----------------------------------------------|
|-----------------------------------------------|
|----------------------------------------------:|[Gtr.1&2]
|----------------------------------------------:|
|--3---2---5---6---2------3---2---5---6---2-----|
|--1---0---3---4---0--1~--1---0---3---4---0--1~~|
   .       .   .    [a.h.].       .   .    [a.h.]


|Riff D|
|-----------------------------------------------|
|-----------------------------------------------|
|:----------------------------------------------|[Gtr.1&2]
|:----------------------------------------------|
|--3-----2-----2"--2-----3-----2-----2"--2------|
|--1-----0-----0"--0-----1-----0-----0"--0------|
|  .           .         .           .          |
|                                    [End Riff D]
|-----------------------------------------------|
|-----------------------------------------------|
|----------------------------------------------:|[Gtr.1&2]
|----------------------------------------------:|
|--3---2---5---6---2------3---2---5---6---2-----|
|--1---0---3---4---0--1~--1---0---3---4---0--1~~|
   .       .   .    [a.h.].       .   .    [a.h.]


|Fill 1|(*See Below Note)
|-----------------------------------------------|
|-----------------------------------------------|
|-----------------------------------------------|[Gtr.1&2]
|-----------------------------------------------|
|--3---2---5---6---2------3---2---5---6---2-----|
|--1---0---3---4---0--1~--1---0---3---4---0--1~~|
   .       .   .    [a.h.].       .   .    [a.h.]


 ____________________________________________________________
|* = Fill is played each time followed by guitar tacets, then|
|the fill again, etc.                                        |
|____________________________________________________________|



Play Riff D a total of six times.


 |Riff A.2|
||------------------------------|-----------------------------|
||------------------------------|-----------------------------|
||:-----------------------------|-----------------------------|[Gtr.1&2]
||:-2---------------------------|--2--------------------------|
||--2--------------------10_8_7\|--2------------------10_8_7\-|
||--0---0000000000000000---p-psl|--0-0000000000000000---p-p-sl|
||      @@@@@@@@@@@@@@@@             @@@@@@@@@@@@@@@@         |
||                                                            |
||                                            |rit - - - - - -
||------------------------------|-----------------------------|
||------------------------------|-----------------------------|
||------------------------------|-------------7------5--------|[Gtr.1&2]
||--2---------------------------|--2----------7------5--------|
||--2--------------------10_8_7\|--2----------5------3--------|
||--0---0000000000000000---p-psl|--0-00000000-----------------|
        @@@@@@@@@@@@@@@@             @@@@@@@@

 - - - - - - - -|  |End Riff A.2|
 |------------------------------||
 |------------------------------||
 |-----------------------------:||[Gtr.1&2]
 |--2"--------(2)-----------2--:||
 |--2"--------(2)-----------2---||
 |--0"--------(0)-----------0---||
                            |End!|


Check Out Death8699.com, With More Transcriptions On It:
 http://www.death8699.com/

Check Out Rellik's Official Page On The Web:
 http://www.rellik.cc/

  Visit MetalTabs.com for more metal tablature

bottom separator

Contact Us | Privacy Policy | Disclaimer | Legal Notice
Copyright © 2001-2014 MetalTabs.com. All Rights Reserved.