top separator

Home

Forum

What's New

Submit a Tab

FAQ

Links

Contact Us

Link to Us

MetalTabs.com logo

Bands

0-9

A

B

C

D

E

F

G

H

I

J

K

L

M

N

O

P

Q

R

S

T

U

V

W

X

Y

Z

Search

What

Where
 

Rellik - "The Cleaving of Flesh by Steel" Guitar Tab

Plain Text Version
More Rellik Tabs

Hits: 4123
Rated: 5.00 out of 5 (3 votes)
Updated: 2002-05-27 12:20:34

 

By:

death8699

sendpm.gif

email.gif

Important note
This tab is available online because we obtained explicit permission from Rellik or their label.


#----------------------------------PLEASE NOTE---------------------------------#
#This file is the author's own work and represents their interpretation of the #
#song. You may only use this file for private study, scholarship, or research. #
#Unless specified otherwise, this is NOT an official tab from the band members.#
#------------------------------------------------------------------------------#

  Visit MetalTabs.com for more metal tablature
  
       R E L L I K  - THE CLEAVING OF FLESH BY STEEL  [Official Tab]
                   From the Demo BORNE OF WIND AND WAR

                          Version 1.1 - MARCH '02

Transcribed by: death8699
  Corrected by: Mike Coniglio [The Axe of Rellik!]

For Questions, Comments, Newest Version, or Corrections contact
 death8699: at ArchEnemies@aol.com
      Mike: at misogynistmike@yahoo.com

Check Out Death8699.com, With More Transcriptions On It:
 http://www.death8699.com

Check Out Rellik's Official Page On The Web:
 http://www.rellik.cc

.  - palm mute                  /  - slide up to
\  - slide down to              ~  - vibrato
"  - tremelo picking           ( ) - ghost note
b  - bend                       h  - hammer-on
fb - full bend (1 step)         p  - pull-off
hb - half bend (1/2 step)       r  - release a bend
t  - tapping                    ah - artificial harmonic

Tune Gtr to D [D,G,C,F,A,D]

--THE CLEAVING OF FLESH BY STEEL--

[Fill 1]       [End Fill 1]
[-------------------------|-------]
[-------------------------|-------]
[*-10-9--7------10-9--7---|------*][Gtrs.1&2]
[*-10-9--7------10-9--7---|---2--*]
[--8--7--5------8--7--5---|---2---]
[-------------------------|---0---]
   .  .  ^      .  .  ^       ^
                           [Gtr.2]

[Riff A]
[-----------------------------------------------------------------]
[-----------------------------------------------------------------]
[*---------------------------------------------------------------*][Gtr.1]
[*------9999101010109999---------------------------9999101010109-*]
[--7777-----------------10101010108888777788887777----------------]
[-----------------------------------------------------------------]

[-----------------------------------------------------------------]
[-----------------------------------------------------------------]
[*------------------------------------9--------------------------*][Gtr.2]
[*-[tacet]----------------------------9--------------------------*]
[-------------------------------------7---------------------------]
[-------------------------------------0---------------------------]
                                      ^
                    [End Riff A]
[------------------------------]
[------------------------------]
[*-10-9--7------10-9--7-------*][Gtrs.1&2]
[*-10-9--7------10-9--7-------*]
[--8--7--5------8--7--5--------]
[--8--7--5------8--7--5--------]
   .  .  ^      .  .  ^


Riff A [2tx]


[Riff B]
[-------------------|-------------------|--------------------]
[-------------------|-------------------|--------------------]
[*------------------|-------------------|-------------------*][Gtrs.1&2]
[*-999999---10--7---|--999999---10--7---|--999999---10--7---*]
[--777777---7---5---|--777777---7---5---|--777777---7---5----]
[-------------------|-------------------|--------------------]
            ^   ^               ^   ^               ^   ^

          [End Riff B]
[--------------------]
[--------------------]
[*------------------*][Gtrs.1&2]
[*------------------*]
[--5555333322223333--]
[--------------------]


Riff B [1tx]
Riff A [2tx]


[Band tacet]


Riff B [5tx]


[Riff C]
[---------------------------------------------------------------]
[---------------------------------------------------------------]
[*-------------------------------------------------------------*][Gtr.1]
[*-----------9-/-10------------9-/-12--------------9-/-10--9-/-*]
[------------7-/-8-------------7-/-10--------------7-/-8---7-/--]
[--0--0-0-0----sl----0--0-0-0----sl------0--0-0-0----sl------sl-]
   .  . . .          .  . . .            .  . . .          ^
   ^                 ^                   ^
 [E5]               [E5]               [E5]               [E5]
[---------------------------------------------------------------]
[---------------------------------------------------------------]
[*-------------------------------------------------------------*][Gtr.2]
[*-2------------------2------------------2-----------------2---*]
[--2------------------2------------------2-----------------2----]
[--0------------------0------------------0-----------------0----]
   ^                  ^                  ^                 ^

[---------------]
[---------------]
[*-------------*][Gtr.1]
[*-/-12-7------*]
[--/-10-5-------]
[--sl-----------]
        ^


Riff C [1tx]*

 ___________________________________________________________
[* = Last time Gtr.2 doubles Gtr.1 but on the last bar only.]
[___________________________________________________________]


Riff C [6tx]


[Riff D]
[------------------------------------------------------------------]
[------------------------------------------------------------------]
[*----------------------------------------------------------------*][Gtrs.&2]
[*-----------------------------------2-------------------7--------*]
[------------5_7--8------------0_2-3--------------7_9-10---10-9-7--]
[--0--0-0-0---h------0--0-0-0---h-------0--0-0-0---h---------------]
   .  . . .          .  . . .           .  . . .

[End Riff D]
[----------]
[----------]
[*--------*][Gtrs.1&2]
[*--------*]
[--5-/-7---]
[---sl-----]


Riff D [7tx]


[Fill 2]
[----------------------|---------------------|----------------------]
[----------------------|---------------------|----------------------]
[*---------------------|---------------------|---------------------*][Gtrs.&2]
[*-2----2--2-2-2--2----|-2----2--2-2-2--2----|-2----2--2-2-2--2----*]
[--2----2--2-2-2--2----|-2----2--2-2-2--2----|-2----2--2-2-2--2-----]
[--0----0--0-0-0--0----|-0----0--0-0-0--0----|-0----0--0-0-0--0-----]
   .    .  . . .  .      .    .  . . .  .      .    .  . . .  .

[------------------]
[------------------]
[*----------------*][Gtrs.&2]
[*-2------2-------*]
[--2------2--------]
[--0------0--------]
   ^      ^


Riff B [5tx]
Riff A [2tx]
End!


Check Out Death8699.com, With More Transcriptions On It:
 http://www.death8699.com

Check Out Rellik's Official Page On The Web:
 http://www.rellik.cc

  Visit MetalTabs.com for more metal tablature

bottom separator

Contact Us | Privacy Policy | Disclaimer | Legal Notice
Copyright © 2001-2014 MetalTabs.com. All Rights Reserved.