top separator

Home

Forum

What's New

Submit a Tab

FAQ

Links

Contact Us

Link to Us

MuSpy.com

MetalTabs.com logo

Bands

0-9

A

B

C

D

E

F

G

H

I

J

K

L

M

N

O

P

Q

R

S

T

U

V

W

X

Y

Z

Search

What

Where
 

Napalm Death - "Unchallenged Hate" Guitar Tab

Plain Text Version
More Napalm Death Tabs

Hits: 7219
Rated: 4.00 out of 5 (1 vote)
Updated: 2002-05-27 12:03:06

 

By:

death8699

sendpm.gif

email.gif

Important note
This tab is available online because we obtained explicit permission from Napalm Death or their label.


#----------------------------------PLEASE NOTE---------------------------------#
#This file is the author's own work and represents their interpretation of the #
#song. You may only use this file for private study, scholarship, or research. #
#Unless specified otherwise, this is NOT an official tab from the band members.#
#------------------------------------------------------------------------------#

  Visit MetalTabs.com for more metal tablature
  
         N A P A L M  D E A T H  -  U N C H A L L E N G E D  H A T E
                      From the Album DEATH BY MANIPULATION
                           Copyright EARACHE RECORDS

                              Version 1.1 - MAY '02

Transcribed by: death8699

For Questions, Comments, Newest Version, or Corrections contact
 death8699: at ArchEnemies@aol.com

Check Out Death8699.com, With More Transcriptions On It:
 http://www.death8699.com

.  - palm mute                  /  - slide up to
\  - slide down to              ~  - vibrato
"  - tremelo picking           ( ) - ghost note
b  - bend                       h  - hammer-on
fb - full bend (1 step)         p  - pull-off
hb - half bend (1/2 step)       r  - release a bend
t  - tapping                    ah - artificial harmonic

Tune Gtr to C#

--U N C H A L L E N G E D  H A T E--

[Riff A]
[-------------------------------------------]
[-------------------------------------------]
[*-----------------------------------------*][Gtrs.1&2]
[*-----------------------------------------*]
[--3\2--------------------3\2--------5--8---]
[--1\0--0--0--0--0--0--0--1\0--0--0--3--6---]
    sl  .  .  .  .  .  .   sl  .  .

[-------------------------------------------]
[-------------------------------------------]
[*-----------------------------------------*][Gtrs.1&2]
[*-----------------------------------------*]
[--3\2--------------------3\2--------8--5---]
[--1\0--0--0--0--0--0--0--1\0--0--0--6--3---]
    sl  .  .  .  .  .  .   sl  .  .


Riff A [3tx]


[Riff B]
[-------------------------------|------------------------------]
[-------------------------------|------------------------------]
[*------------------------------|-----------------------------*][Gtrs.1&2]
[*------------------------------|---------------3-------------*]
[--2------3------5------4_5_4_5-|-2------3------1------5-------]
[--0------1------3-------h-p-h--|-0------1-------------3-------]

[-------------------------------|------------------------------]
[-------------------------------|------------------------------]
[*------------------------------|-----------------------------*][Gtrs.1&2]
[*------------------------------|---------------3-------------*]
[--2------3------5------4_5_4_5-|-2------3------1------5-------]
[--0------1------3-------h-p-h--|-0------1-------------3-------]


Riff A [2tx]
Riff B [2tx]


[Fill 1]
[----------------]
[----------------]
[*--------------*][Gtrs.1&2]
[*--------------*]
[--2-------------]
[--0-------------]
[Hold]


[Riff C]
[---------------------------------|----------------------------------------]
[---------------------------------|----------------------------------------]
[*--------------------------------|---------------------------------------*][Gtr.1]
[*--------------------------------|---------------3-----------------------*]
[--3\2--------------------3\2-3\2-|----------5----1--3\2-------------------]
[--1\0--0-0--0--0--0--0-0-1\0-1\0-|-0--0--0--3_0-----1\0--0-0--0--0--0--0--]
    sl  . .  .  .  .  .    sl  sl   .  .  .   p       sl  . .  .  .  .  .

[---------------------------------|----------------------------------------]
[---------------------------------|----------------------------------------]
[*--------------------------------|---------------------------------------*][Gtr.2]
[*--------------------------------|---------------------------------------*]
[--(2)----------------------------|----------------------------------------]
[--(0)----------------------------|----------------------------------------]

[---------------------------------]
[---------------------------------]
[*-------------------------------*][Gtrs.1&2]
[*-------------------------------*]
[----3\2-3\2-----------6\3-6------]
[--0-1\0-1\0--0--0--0--4\1-4------]
      sl  sl  .  .  .   sl


Riff C [3tx]


[Fill 2]
[------]
[------]
[*----*][Gtrs.1&2]
[*----*]
[--2---]
[--0---]
[Pause]


[Riff D]
[----------------------|------------------------]
[----------------------|------------------------]
[*---------------------|-----------------------*][Gtrs.1&2]
[*---------------------|-----------------------*]
[-------------------4"-|----------1"------------]
[--0"--3"--1"--3"------|-0"--1"-------3"---1"---]


[Riff E]
[----------------------------------|----------------------------------]
[----------------------------------|----------------------------------]
[*---------------------------------|---------------------------------*][Gtrs.1&2]
[*---------------------------------|---------------------------------*]
[---------------5"-----4"----------|-6"------------------5"--4"-------]
[--4"------------------------5"----|--------4"------------------------]

[----------------------------------]
[----------------------------------]
[*--------------------------------*][Gtrs.1&2]
[*--------------------------------*]
[-------6"-------------------------]
[--5"--------4"--------------------]


Riff D [2tx]
Riff E [2tx]


[Riff F]
[--------------------------|------------------|-------------------]
[--------------------------|------------------|-------------------]
[*-------------------------|------------------|------------------*][Gtrs.1&2]
[*--------3--4-------------|-3--4-------------|-3--4-------------*]
[--2------1--2--5---2------|-1--2--5---2------|-1--2--5---2-------]
[--0------------3---0------|-------3---0------|-------3---0-------]

[--------------------------]
[--------------------------]
[*------------------------*][Gtrs.1&2]
[*-3--4-------------------*]
[--1--2--5-----------------]
[--------3-----------------]


[Riff G]
[------------------------------|------------------------------]
[------------------------------|------------------------------]
[*-----------------------------|-----------------------------*][Gtrs.1&2]
[*----------------3--4---------|----------------3--4---------*]
[--3---5------2---1--2--5---2--|-3---5------2---1--2--5---2---]
[--1---3------0---------3---0--|-1---3------0---------3---0---]

[------------------------------|------------------------------]
[------------------------------|------------------------------]
[*-----------------------------|-----------------------------*][Gtrs.1&2]
[*----------------3--4---------|----------------3--4---------*]
[--3---5------2---1--2--5---2--|-3---5------2---1--2--5---2---]
[--1---3------0---------3---0--|-1---3------0---------3---0---]


[Riff H]
[--------------------------------|-------------------------------]
[--------------------------------|-------------------------------]
[*-------------------------------|------------------------------*][Gtrs.1&2]
[*-------------------------------|------------------------------*]
[--------------------------------|-3"----4"----------------------]
[--0"----------3"----1"----4"----|--------------3"----1"---------]


[Riff I]
[---------------------------|------------------------------]
[---------------------------|------------------------------]
[*--------------------------|-----------------------------*][Gtrs.1&2]
[*----------------4--3------|----------------4--3---------*]
[--2---5------3---2--1--5---|-2---5------3---2--1--5---2---]
[--0---3------1---------3---|-0---3------1---------3---0---]

[---------------------------|------------------------------]
[---------------------------|------------------------------]
[*--------------------------|-----------------------------*][Gtrs.1&2]
[*----------------4--3------|----------------4--3---------*]
[--2---5------3---2--1--5---|-2---5------3---2--1--5---2---]
[--0---3------1---------3---|-0---3------1---------3---0---]


[Riff J]
[-------------------------|-------------------------]
[-------------------------|-------------------------]
[*------------------------|------------------------*][Gtrs.1&2]
[*------------------------|------------------------*]
[-------------------------|-------------------------]
[--0"----------1"----4"---|-3"----4"----1"----------]


[Riff F.1]
[--------------------------|------------------|-------------------]
[--------------------------|------------------|-------------------]
[*-------------------------|------------------|------------------*][Gtrs.1&2]
[*--------3--4-------------|-3--4-------------|-3--4-------------*]
[--2------1--2--5---2------|-1--2--5---2------|-1--2--5---2-------]
[--0------------3---0------|-------3---0------|-------3---0-------]

[--------------------------]
[--------------------------]
[*------------------------*][Gtrs.1&2]
[*-3--4-------------------*]
[--1--2--5---2-------------]
[--------3---0-------------]

Check Out Death8699.com, With More Transcriptions On It:
 http://www.death8699.com

  Visit MetalTabs.com for more metal tablature

bottom separator

Contact Us | Privacy Policy | Disclaimer | Legal Notice
Copyright © 2001-2014 MetalTabs.com. All Rights Reserved.