top separator

Home

Forum

What's New

Submit a Tab

FAQ

Links

Contact Us

Link to Us

MetalTabs.com logo

Bands

0-9

A

B

C

D

E

F

G

H

I

J

K

L

M

N

O

P

Q

R

S

T

U

V

W

X

Y

Z

Search

What

Where
 

Napalm Death - "Suffer the Children" Guitar Tab

Plain Text Version
More Napalm Death Tabs

Hits: 11460
Rated: 4.50 out of 5 (10 votes)
Updated: 2005-04-07 14:57:58

 

By:

death8699

sendpm.gif

email.gif

Important note
This tab is available online because we obtained explicit permission from Napalm Death or their label.


#----------------------------------PLEASE NOTE---------------------------------#
#This file is the author's own work and represents their interpretation of the #
#song. You may only use this file for private study, scholarship, or research. #
#Unless specified otherwise, this is NOT an official tab from the band members.#
#------------------------------------------------------------------------------#

  Visit MetalTabs.com for more metal tablature
  
Band:  NAPALM DEATH
Album: HARMONY CORRUPTION
Song:  SUFFER THE CHILDREN

Copyright (c) EARACHE RECORDS 1990
Version 666 - APRIL 2005

Transcribed By: Death8699
Email:          death8699@hotmail.com

.  - palm mute           /  - slide up to
\  - slide down to       ~  - vibrato
h  - hammer on           b  - Bend
p  - pull off            Suffixes for bend
t  - tap                 f  - full bend    h - half bend
ph - pinched harmonic    q  - quarter bend t - tap bend
*  - see comment         ^  - Hold bend    r release bend
x  - Stuccatto           ~  - vibrato bend
,  - slight palm mute    () - ghost note, sustained note
"  - tremolo note        <> - Trill

Tune Gtr to D (Down One Whole Step)

--SUFFER THE CHILDREN--

|Drum Fill|

 |Riff A|
||-----------------------------|----------------------------||
||-----------------------------|----------------------------||
||:---------------3------------|-6-------------3--4---------||
||:-3-------------3------------|-6-------------3--4--6--5---||
||--3-------------1------------|-4-------------1--2--6--5---||
||--1--0-0-0-0-0-----0-0-0-0-0-|----0-0-0-0-0--------4--3---||
||     . . . . .     . . . . .      . . . . .               ||
||-----------------------------|----------------------------||
||-----------------------------|----------------------------||
||----------------3------------|-6-------------9--8--------:||
||--3-------------3------------|-6-------------9--8--5--6--:||
||--3-------------1------------|-4-------------7--6--5--6---||
||--1--0-0-0-0-0-----0-0-0-0-0-|----0-0-0-0-0--------3--4---||
       . . . . .     . . . . .      . . . . .


Play Riff A a total of 4 times.


|Riff B|
|---------------------------------|------------------------------|
|---------------------------------|------------------------------|
|:--------------------------------|------------------------------|
|:-3------------------------------|-3---------------5//6--5//6---|
|--3------------------------------|-3---------------5//6--5//6---|
|--1--0-0-0-0-0-0-0-0-0-0-0-0-0-0-|-1--0-0-0-0-0-0--3//4--3//4---|
|     . . . . . . . . . . . . . .      . . . . . .  sl    sl     |
|---------------------------------|------------------------------|
|---------------------------------|------------------------------|
|---------------------------------|-----------------------------:|
|--3------------------------------|-3---------------6\\5--6\\5--:|
|--3------------------------------|-3---------------6\\5--6\\5---|
|--1--0-0-0-0-0-0-0-0-0-0-0-0-0-0-|-1--0-0-0-0-0-0--4\\3--4\\3---|
      . . . . . . . . . . . . . .      . . . . . .    sl    sl


Play Riff B a total of 2 times.


Repeat Riff A a total of 4 times.
Repeat Riff B a total of 2 times.


|Riff C|
|--------------------------|----------------------------|
|--------------------------|----------------------------|
|:-------------------------|----------------------------|
|:---------6----6----------|------9---------------------|
|--2-------4----4--5/6-5/6-|-2----7----8----8--5/6-5/6--|
|--0----0----------3/4-3/4-|-0---------6----6--3/4-3/4--|
|                  sl  sl                      sl  sl   |
|--------------------------|----------------------------|
|--------------------------|----------------------------|
|--------------------------|---------------------------:|
|----------6----6----------|------9--------------------:|
|--2-------4----4--5/6-5/6-|-2----7----8----8--5/6-5/6--|
|--0----0----------3/4-3/4-|-0---------6----6--3/4-3/4--|
                   sl  sl                      sl  sl


Play Riff C a total of 2 times.


|Riff C.1|
|---------------------------------------|
|---------------------------------------|
|:--------------------------------------|
|:--------------------------------------|
|------------------4-4-4-4-4-4----------|
|--0-0-0-0-0-0-1-1-------------3_4_3_4--|
|                               h p h   |
|---------------------------------------|
|---------------------------------------|
|--------------------------------------:|
|--------------------------------------:|
|----------7-7-7-7----------------------|
|--0-0-0-0---------6-6-6-6-6-6-3_4_3_4--|
                                h p h


Play Riff C.1 a total of 4 times.


|Next|
|------------------------|------------------------|
|------------------------|------------------------|
|:-----------------------|-----------------------:|
|:-----------6-----------|-----------6-----------:|
|--2----3----4----5/6----|-2----3----4----5/6-----|
|--0----1---------3/4----|-0----1---------3/4-----|
                  sl                      sl


Play Above Riff a total of one time only.


 |Riff D|
||------------------------|------------------------||
||------------------------|------------------------||
||:-----------------------|-----------------------:||
||:-----------6-----------|-----------6-----------:||
||--2----3----4----5/6----|-2----3----4----5/6-----||
||--0----1---------3/4----|-0----1---------3/4-----||
                   sl                      sl


Play Riff D a total of 4 times.


|Riff E|
|-------------------------------------------------------------------------|
|-------------------------------------------------------------------------|
|-------------------------------------------------------------------------|
|---------------------------------------------------------8-8-8-8-8-8-8-8-|
|-2-2-2-2-2-2-2-2-2-2-2-2-2-2-2-2-6-6-6-6-5-5-5-5-5-5-5-5-----------------|
|-------------------------------------------------------------------------|
|                                                                         |
|-------------------------------------------------------------------------|
|-------------------------------------------------------------------------|
|-------------------------------------------------------------------------|
|-------------------------------------------------------------------------|
|-2-2-2-2-2-2-2-2-2-2-2-2-2-2-2-2-6-6-6-6-5-5-5-5-5-5-5-5-----------------|
|---------------------------------------------------------4-4-4-4-4-4-4-4-|


Play Riff E a total of 2 times.


|Riff F|
|-----------------------------------------------------------------|
|-----------------------------------------------------------------|
|-----------------------------------------------------------------|
|-----------------------------------------------------------------|
|---------------------------------7-7-7-7-7-7-7-7-7-7-7-7-7-7-7-7-|
|-6-6-6-6-6-6-6-6-6-6-6-6-4-4-4-4---------------------------------|
|                                                                 |
|-----------------------------------------------------------------|
|-----------------------------------------------------------------|
|-----------------------------------------------------------------|
|-----------------------------------------------------------------|
|-----------------------------------------8-8-8-8-8-8-8-7-7-7-7---|
|-6-6-6-6-6-6-6-6-6-6-6-6-4-4-4-4-4-4-4-4-------------------------|


Play Riff F a total of 2 times.


Repeat Riff D a total of 4 times.
Repeat Riff E a total of 2 times.
Repeat Riff F a total of 2 times.
Repeat Riff D a total of 4 times.
Repeat Riff E a total of 2 times.
Repeat Riff F a total of 2 times.


|Fill 1|
|----------------|-----------------|
|----------------|-----------------|
|----------------|-----------------|
|--2-------------|-(2)-------------|
|--2-------------|-(2)-------------|
|--0-------------|-(0)-------------|


Play Fill 1 one time only.


|Next|
|----------------------|-------------------------|
|----------------------|-------------------------|
|--------------3-------|-------------------------|
|--------------3-------|-------------5/6--3------|
|--------------1-------|-------------5/6--3------|
|--0--0--0--0----------|-0--0--0--0--3/4--1------|
|  .  .  .  .            .  .  .  .  sl          |
|----------------------|-------------------------|
|----------------------|-------------------------|
|--------------3-------|-------------------------|
|--------------3-------|----2--------4\3--4------|
|--------------1-------|----2--------4\3--4------|
|--0--0--0--0----------|-0--0-----0--2\1--2------|
   .  .  .  .            .        .   sl


Play Above Riff one time only.


|Riff G|
|----------------------|-------------------------|
|----------------------|-------------------------|
|:-------------3-------|-------------------------|
|:-------------3-------|-------------5/6--3------|
|--------------1-------|-------------5/6--3------|
|--0--0--0--0----------|-0--0--0--0--3/4--1------|
|  .  .  .  .            .  .  .  .  sl          |
|----------------------|-------------------------|
|----------------------|-------------------------|
|--------------3-------|------------------------:|
|--------------3-------|----2--------4\3--4-----:|
|--------------1-------|----2--------4\3--4------|
|--0--0--0--0----------|-0--0-----0--2\1--2------|
   .  .  .  .            .        .   sl


Play Riff G a total of 2 times.


|Riff G.1|
|-----------------------------------|------------------------------------|
|-----------------------------------|------------------------------------|
|:-------------3------4------5------|-------------3------4------6--------|
|:-------------3------4------5------|-------------3------4------6--------|
|--------------1------2------3------|-------------1------2------4--------|
|--0--0--0--0-------------------3hb-|-0--0--0--0--------------------3hb--|
|  .  .  .  .                         .  .  .  .                         |
|-----------------------------------|------------------------------------|
|-----------------------------------|------------------------------------|
|--------------3------4------5------|-------------3------4------6-------:|
|--------------3------4------5------|-------------3------4------6-------:|
|--------------1------2------3------|-------------1------2------4--------|
|--0--0--0--0-------------------3hb-|-0--0--0--0--------------------3hb--|
   .  .  .  .                         .  .  .  .


Repeat Riff G   a total of 2 times.
Repeat Riff G.1 a total of 1.5 times.


|Riff G.2|  rit - - - - - - - - - - - - - - - - - - - - - - - - - - - - -
|-----------------------------------|------------------------------------|
|-----------------------------------|------------------------------------|
|--------------3------4------5------|-------------3------4------6-------:|
|--------------3------4------5------|-------------3------4------6-------:|
|--------------1------2------3------|-------------1------2------4--------|
|--0--0--0--0-------------------3hb-|-0--0--0--0--------------------3hb--|
|  .  .  .  .                         .  .  .  .                         |
|-----------------------------------|------------------------------------|
|-----------------------------------|------------------------------------|
|-----------------------------------|------------------------------------|
|--2--------------------------------|-(2)--------------------------------|
|--2--------------------------------|-(2)--------------------------------|
|--0--------------------------------|-(0)--------------------------------|

END

  Visit MetalTabs.com for more metal tablature

bottom separator

Contact Us | Privacy Policy | Disclaimer | Legal Notice
Copyright © 2001-2014 MetalTabs.com. All Rights Reserved.