top separator

Home

Forum

What's New

Submit a Tab

FAQ

Links

Contact Us

Link to Us

MuSpy.com

MetalTabs.com logo

Bands

0-9

A

B

C

D

E

F

G

H

I

J

K

L

M

N

O

P

Q

R

S

T

U

V

W

X

Y

Z

Search

What

Where
 

Napalm Death - "Mass Appeal Madness" Guitar Tab

Plain Text Version
More Napalm Death Tabs

Hits: 6954
Rated: 3.75 out of 5 (4 votes)
Updated: 2005-01-31 06:09:59

 

By:

death8699

sendpm.gif

email.gif

Important note
This tab is available online because we obtained explicit permission from Napalm Death or their label.


#----------------------------------PLEASE NOTE---------------------------------#
#This file is the author's own work and represents their interpretation of the #
#song. You may only use this file for private study, scholarship, or research. #
#Unless specified otherwise, this is NOT an official tab from the band members.#
#------------------------------------------------------------------------------#

  Visit MetalTabs.com for more metal tablature
  
NAPALM DEATH - MASS APPEAL MADNESS
                     From the Album DEATH BY MANIPULATION
                         Copyright 1991 EARACHE RECORDS

                          Version 666 - JANUARY 2005

Transcribed by: Death8699

For Questions, Comments, Newest Version, or Corrections contact
 Death8699: at MethylinInfo@aol.com

..  - palm mute          /  - slide up to
 \  - slide down to      ~  - vibrato
 h  - hammer on          b  - bend
 p  - pull off            Suffixes for bend
                          ph - pinch harmonic
                           f - full bend    h - half bend
*  - see comment           r - release      t - tap bend
X  - percussion mute       ~ - vibrato bend
@  - slight palm mute     () - ghost note, sustained note

Tune Gtr to C#

--MASS APPEAL MADNESS--

 |Riff A|                        |A.1|
||-------------------------------|-------------------------------------||
||-------------------------------|-------------------------------------||
||:------------------------------|------------------------------------:||
||:-6------------------8\7-------|-6------------------7\6/8-----------:||
||--4----5------4/5----6\5-------|-4----5------4/5----5\4/6----5/6\3---||
||----0"-3-0"---2/3-0"--sl-0"----|---0"-3-0"---2/3-0"---sl--0"-3/4\1---||
||               sl                             sl               sl    ||
||-------------------------------|-------------------------------------||
||-------------------------------|-------------------------------------||
||:------------------------------|------------------------------------:||
||:-6----------------------------|-6----------------------------------:||
||--4----5-----------------------|-4----5------------------------------||
||----0"-3-----------------------|---0"-3------------------------------||


Play Riff A a total of 4 times.
Play Riff A.1 a total of one time.


Repeat Riff A a total of 3 times.
Repeat Riff A.1 a total of one time.
Repeat Riff A a total of 3 times.
Repeat Riff A.1 a total of one time.


 |Riff B|
||-----------------------------|---------------------------||
||-----------------------------|---------------------------||
||:----------------------------|--------------------------:||
||:----------------------------|--------------------------:||
||-----------2"----1"----------|------2"--------2"--1"-----||
||--0"----3"----------3"2"0"---|-"3"-------3"--------------||


Play Riff B a total of 3 times.


Repeat Riff A a total of 3 times.
Repeat Riff A.1 a total of one time.
Repeat Riff A a total of 3 times.
Repeat Riff A.1 a total of one time.
Repeat Riff B a total of 4 times.


 |Fill 1|
||---------------||
||---------------||
||---------------||
||--2------------||
||--2------------||
||--0------------||


 |Riff C|
||---------------------------------|--------------------------------------|
||---------------------------------|--------------------------------------|
||:--------------------------------|--------------------------------------|
||:--------------------------------|--6-------9---------------------------|
||--5------6------3---5---6------5-|--4---7---7-------3---5---6---5---3---|
||--3-0"---4-0"---1---3---4-0"---3-|------5-------0---1---3---4---3---1---|
||                                                                        |
||---------------------------------|--------------------------------------|
||---------------------------------|--------------------------------------|
||:--------------------------------|--------------------------------------|
||:--------------------------------|--------------------------------------|
||--5------------------------------|--------------------------------------|
||--3------------------------------|--------------------------------------|

 |---------------------------------|--------------------------------------||
 |---------------------------------|--------------------------------------||
 |---------------------------------|-------------------------------------:||
 |---------------------------------|--6-------9--------------------------:||
 |--5------6------3---5---6------5-|--4---7---7-------3---5---6---5---3---||
 |--3-0"---4-0"---1---3---4-0"---3-|------5-------0---1---3---4---3---1---||
 |                                                                        ||
 |---------------------------------|--------------------------------------||
 |---------------------------------|--------------------------------------||
 |---------------------------------|-------------------------------------:||
 |---------------------------------|--6-------9--------------------------:||
 |--5------------------------------|--4---7---7---------------------------||
 |--3------------------------------|------5-------------------------------||


Play Riff C a total of 4 times.


 |Riff D|
||-----------------------------------|-----------------------------------||
||-----------------------------------|-----------------------------------||
||:----------------------------------|----------------------------------:||
||:----------------------------------|-------------2"-------------------:||
||----------3"-0"3"---------3"-0"3"--|----------3"------3"0"3"-----------||
||--0"----1"--------0"----1"---------|-0"----1"------------------1"------||



Play Riff D a total of 3 times.


 |Riff E|
||-----------------------------|--------------------------------||
||-----------------------------|--------------------------------||
||:----------------------------|-------------------------------:||
||:-------------5"-------------|-------------5"----------------:||
||--2----------------2"--------|-2----------------2-3---3---3---||
||--0------3"-------------1"---|-0------3"----------1---1---1---||


Play Riff E a total of one time.


 |Riff F|
||--------------------------------------|-------------------------------------||
||--------------------------------------|-------------------------------------||
||:-------------------------------------|------------------------------------:||
||:-----4-------4-3-----4----------5"---|-----4-------4-3-----4----------4"--:||
||------2-5-----2-1-----2-5-------------|-----2-5-----2-1-----2-5-------------||
||--002---3-220-----002---3-2202_3------|-002---3-220-----002---3-2200_2------||
||                              h                                     h       ||
||--------------------------------------|-------------------------------------||
||--------------------------------------|-------------------------------------||
||:-------------------------------------|------------------------------------:||
||:--------------------------------5"---|--------------------------------4"--:||
||--2--------------------------4/5------|-2--------------------------2/4------||
||--0-----------------------2202/3------|-0-----------------------2200/2------||
                               sl                                    sl


Play Riff F a total of 2 times.


 |Riff G|
||----------------------------------|------------------------------------||
||----------------------------------|------------------------------------||
||:---------------------------------|-----------------------------------:||
||:-2"---------------2"-------------|-2"---------------2"---------------:||
||---------------3"------3"----3----|--------------3"------3"------------||
||--------------------------4"--410-|--------------------------4"-1"-0"--||


Play Riff G a total of one time.


 |Riff H|
||-----------------------------------|------------------------------------||
||-----------------------------------|------------------------------------||
||:----------------------------------|-----------------------------------:||
||:------------------------------4_5-|-----------------------------------:||
||--2"-----2---2-1----------------h--|-2"----------2---2-1----------------||
||------3"---3-----3-0-3--0-3_4------|----------3"---3-----4"-1"-------0"-||
                            h


Play Riff H a total of one time.


Repeat Riff F a total of 2 times.
Repeat Riff G a total of 2 times.
Repeat Riff H a total of 2 times.


|Fill 2|
|---------------|---------------|
|---------------|---------------|
|---------------|---------------|
|--2------------|---------------|
|--2------------|-2"------------|
|--0------------|------3"-------|



|Fill 3|
|------|
|------|
|------|
|--2---|
|--2---|
|--0---|


 |Riff I|
||------------------------------|------------------------------||
||------------------------------|------------------------------||
||:-----------------------------|-----------------------------:||
||:--------6-----5--------------|--------6-----5---/8-7-------:||
||---------4-----3---5-6"-------|--------4-----3---/6-5--------||
||--0"---------5-----3-4"-------|-0"---------5-----sl----------||
||                                                             ||
||------------------------------|------------------------------||
||------------------------------|------------------------------||
||:-----------------------------|-----------------------------:||
||:--------6-----5--------------|--------6-----5--------------:||
||---------4-----3--3-6---------|--------4-----3---------------||
||--0"---------5----1-4---------|-0"---------5-----4"-1"-0"----||


Play Riff I a total of one time.


Repeat Riff E a total of 2 times.
End on E5 chord!

  Visit MetalTabs.com for more metal tablature

bottom separator

Contact Us | Privacy Policy | Disclaimer | Legal Notice
Copyright © 2001-2014 MetalTabs.com. All Rights Reserved.