top separator

Home

Forum

What's New

Submit a Tab

FAQ

Links

Contact Us

Link to Us

MetalTabs.com logo

Bands

0-9

A

B

C

D

E

F

G

H

I

J

K

L

M

N

O

P

Q

R

S

T

U

V

W

X

Y

Z

Search

What

Where
 

Ensiferum - "Battle Song" Guitar Tab

Plain Text Version
More Ensiferum Tabs

Hits: 17712
Rated: 3.56 out of 5 (18 votes)
Updated: 2003-05-17 08:13:46

 

By:

Darkenelf

sendpm.gif

email.gif

Important note
This tab is available online because we obtained explicit permission from Ensiferum or their label.


#----------------------------------PLEASE NOTE---------------------------------#
#This file is the author's own work and represents their interpretation of the #
#song. You may only use this file for private study, scholarship, or research. #
#Unless specified otherwise, this is NOT an official tab from the band members.#
#------------------------------------------------------------------------------#

  Visit MetalTabs.com for more metal tablature
  
Band: Ensiferum
Album: Ensiferum
Song: Battle Song
Tabbed by: Martijn Wietsma (Darkenelf)
Tab Date: 19-03-2003
Email: dalvanian@yahoo.com
Version 2.0

Standard E Tuning

riff A:
|-------------------------------------------------------------|
|-------------------------------------------------------------|
|----4----4----4-----4----------4----4----4-----4-------------|
|----2----2----2-----2----------2----2----2-----2-------------|
|-00---00---33---222---------00---00---33---222---------------|
|-------------------------------------------------------------|
						(2x)
riff B:
|-------------------------------------------------------------|
|-------------------------------------------------------------|
|-------------------------------------------------------------|
|-------------------------------------------------------------|
|-7---------9-5-----7---------9-5-----------------------------|
|-5-5555555-7-3-----5-5555555-7-3-----------------------------|
    .......           .......			(4x)

riff C: under riff B
|-------------------------------------------------------------|
|-------------------------------------------------------------|
|-------------------------------------------------------------|
|-------------------------------------------------------------|
|-------------------------------------------------------------|
|-55555555-8888-10-10-33-----55555555-8888-10-10-33-----------|
  ........ .... .  .  ..     ........ .... .  .  ..
						(2x)
riff D:
|-------------------------------------------------------------|
|-------------------------------------------------------------|
|-------------------------------------------------------------|
|-9--7---4--5--4---5---7-5-4----------------------------------|
|-7--5---2--3--2---3---5-3-2--7-5-7---------------------------|
|-----------------------------5-3-5---------------------------|
						(1x)
riff E:
|-------------------------------------------------------------|
|-------------------------------------------------------------|
|----------------------7-9-9----------------------------------|
|-/7-9-10--9--10-9--10--------10-9--10-10p9-7----7------------|
|---------------------------------------------10--------------|
|-------------------------------------------------------------|
						(2x)

riff F:
|-------------------------------------------------------------|
|-------------------------------------------------------------|
|-------------------------------------------------------------|
|-----2---3---2----2-----2h3p2--------------------------------|
|-000---0---0---33---222--------------------------------------|
|-------------------------------------------------------------|
  ...   .   .					(4x)

riff B:
|-------------------------------------------------------------|
|-------------------------------------------------------------|
|-------------------------------------------------------------|
|-------------------------------------------------------------|
|-7---------9-5-----7---------9-5-----------------------------|
|-5-5555555-7-3-----5-5555555-7-3-----------------------------|
    .......           .......			(4x)

riff C: under riff B
|-------------------------------------------------------------|
|-------------------------------------------------------------|
|-------------------------------------------------------------|
|-------------------------------------------------------------|
|-------------------------------------------------------------|
|-55555555-8888-10-10-33-----55555555-8888-10-10-33-----------|
  ........ .... .  .  ..     ........ .... .  .  ..
						(2x)
riff D:
|-------------------------------------------------------------|
|-------------------------------------------------------------|
|-------------------------------------------------------------|
|-9--7---4--5--4---5---7-5-4----------------------------------|
|-7--5---2--3--2---3---5-3-2--7-5-7---------------------------|
|-----------------------------5-3-5---------------------------|
						(1x)
riff E:
|-------------------------------------------------------------|
|-------------------------------------------------------------|
|----------------------7-9-9----------------------------------|
|-/7-9-10--9--10-9--10--------10-9--10-10p9-7----7------------|
|---------------------------------------------10--------------|
|-------------------------------------------------------------|
						(2x)
riff G:
|-------------------------------------------------------------|
|-------------------------------------------------------------|
|---------7----------------------------7----------------------|
|-10-777----10-777--10---------10-777----10-777-10------------|
|----------------------10--------------------------10---------|
|-------------------------------------------------------------|
						(2x)
riff E:
|-------------------------------------------------------------|
|-------------------------------------------------------------|
|----------------------7-9-9----------------------------------|
|-/7-9-10--9--10-9--10--------10-9--10-10p9-7----7------------|
|---------------------------------------------10--------------|
|-------------------------------------------------------------|
						(2x)
End riff is almost the same as riff E.

  Visit MetalTabs.com for more metal tablature

bottom separator

Contact Us | Privacy Policy | Disclaimer | Legal Notice
Copyright © 2001-2014 MetalTabs.com. All Rights Reserved.