top separator

Home

Forum

What's New

Submit a Tab

FAQ

Links

Contact Us

Link to Us

MuSpy.com

MetalTabs.com logo

Bands

0-9

A

B

C

D

E

F

G

H

I

J

K

L

M

N

O

P

Q

R

S

T

U

V

W

X

Y

Z

Search

What

Where
 

Ensiferum - "Old Man" Guitar Tab

Plain Text Version
More Ensiferum Tabs

Hits: 15250
Rated: 4.36 out of 5 (11 votes)
Updated: 2003-06-01 11:07:53

 

By:

Darkenelf

sendpm.gif

email.gif

Important note
This tab is available online because we obtained explicit permission from Ensiferum or their label.


#----------------------------------PLEASE NOTE---------------------------------#
#This file is the author's own work and represents their interpretation of the #
#song. You may only use this file for private study, scholarship, or research. #
#Unless specified otherwise, this is NOT an official tab from the band members.#
#------------------------------------------------------------------------------#

  Visit MetalTabs.com for more metal tablature
  
Band: Ensiferum
Album: Ensiferum
Song: Old Man (version 2.0)
Tabbed by: Martijn Wietsma (Darkenelf)
Tab Date: 29-03-2003
Email: dalvanian@yahoo.com

Standard E Tuning

riff A:
|-------------------------------------------------------------|
|-------------------------------------------------------------|
|-------------------------------------------------------------|
|-------------------------------------------------------------|
|-7-5----7----5------5----------------------------------------|
|-----8----7----8-7----5-5------------------------------------|
						(4x)
riff B: + riff C together
|-------------------------------------------------------------|
|-------------------------------------------------------------|
|-------------------------------------------------------------|
|-------------------------------------------------------------|
|-7------5---7------5---7------5---7------5-------------------|
|---7-8--------7-8--------7-8--------7-8----------------------|
						(4x)
riff C:
|-------------------------------------------------------------|
|-------------------------------------------------------------|
|-------9-9--7h9h-----------------9-9-7h9h--------------------|
|-7-h10-----------10-9-9---7h-10-----------10-9---------------|
|-------------------------------------------------------------|
|-------------------------------------------------------------|
						(4x)
riff A:
|-------------------------------------------------------------|
|-------------------------------------------------------------|
|-------------------------------------------------------------|
|-------------------------------------------------------------|
|-7-5----7----5------5----------------------------------------|
|-----8----7----8-7----5-5------------------------------------|
						(4x)
riff B: + riff C together
|-------------------------------------------------------------|
|-------------------------------------------------------------|
|-------------------------------------------------------------|
|-------------------------------------------------------------|
|-7------5---7------5---7------5---7------5-------------------|
|---7-8--------7-8--------7-8--------7-8----------------------|
						(4x)
riff C:
|-------------------------------------------------------------|
|-------------------------------------------------------------|
|-------9-9--7h9h-----------------9-9-7h9h--------------------|
|-7-h10-----------10-9-9---7h-10-----------10-9---------------|
|-------------------------------------------------------------|
|-------------------------------------------------------------|
						(4x)
riff D:
|-------------------------------------------------------------|
|-------------------------------------------------------------|
|-------------------------------------------------------------|
|-------------------------------------------------------------|
|-7777-----------5555---7777-----------5555-------------------|
|------7777-8888-------------7777-8888------------------------|
						(2x)
riff E:
|-------------------------------------------------------------|
|-------------------------------------------------------------|
|-------------------------------------------------------------|
|-------------------------------------------------------------|
|-7-7----5h8-7p5----------7-7----5h8-7p5----------------------|
|-----8----------8-7----------8----------8-7------------------|
						(4x)
riff A:
|-------------------------------------------------------------|
|-------------------------------------------------------------|
|-------------------------------------------------------------|
|-------------------------------------------------------------|
|-7-5----7----5------5----------------------------------------|
|-----8----7----8-7----5-5------------------------------------|
						(4x)
riff E:
|-------------------------------------------------------------|
|-------------------------------------------------------------|
|-------------------------------------------------------------|
|-------------------------------------------------------------|
|-7-7----5h8-7p5----------7-7----5h8-7p5----------------------|
|-----8----------8-7----------8----------8-7------------------|
						(4x)
riff F:
|-------------------------------------------------------------|
|-------------------------------------------------------------|
|-------------------------------------------------------------|
|-7-----------7----------8--------5-7-------------------------|
|-7--5-8-7-8----8-7-5----8--7-8-7------8-7-5------------------|
|-5----------------------6------------------------------------|
						(8x)
riff G:
|-------------------------------------------------------------|
|-------------------------------------------------------------|
|-------------------------------------------------------------|
|---7p5-------------------------------------------------------|
|-5-----8p7h----7h8-7-----------------------------------------|
|------------8------------------------------------------------|
						(8x)
riff F:
|-------------------------------------------------------------|
|-------------------------------------------------------------|
|-------------------------------------------------------------|
|-7-----------7----------8--------5-7-------------------------|
|-7--5-8-7-8----8-7-5----8--7-8-7------8-7-5------------------|
|-5----------------------6------------------------------------|
						(2x)
riff H:
|-------------------------------------------------------------|
|-------------------------------------------------------------|
|-------------------------------------------------------------|
|----5-7----7---7-----5-7----7--------------------------------|
|-5-------8---7-----5------8---7------------------------------|
|-------------------------------------------------------------|
						(4x)
riff I:
|-------------------------------------------------------------|
|-------------------------------------------------------------|
|---7-9----9---9-----7-9----9---------------------------------|
|-7-----10---9-----7-----10---9-------------------------------|
|-------------------------------------------------------------|
|-------------------------------------------------------------|
						(4x)
riff C: (acoustic)
|-------------------------------------------------------------|
|-------------------------------------------------------------|
|-------9-9--7h9h-----------------9-9-7h9h--------------------|
|-7-h10-----------10-9-9---7h-10-----------10-9---------------|
|-------------------------------------------------------------|
|-------------------------------------------------------------|
						(4x)
riff B: + riff C together
|-------------------------------------------------------------|
|-------------------------------------------------------------|
|-------------------------------------------------------------|
|-------------------------------------------------------------|
|-7------5---7------5---7------5---7------5-------------------|
|---7-8--------7-8--------7-8--------7-8----------------------|
						(4x)
riff C:
|-------------------------------------------------------------|
|-------------------------------------------------------------|
|-------9-9--7h9h-----------------9-9-7h9h--------------------|
|-7-h10-----------10-9-9---7h-10-----------10-9---------------|
|-------------------------------------------------------------|
|-------------------------------------------------------------|
						(4x)
riff C:
|-------------------------------------------------------------|
|-------------------------------------------------------------|
|-------9-9--7h9h-----------------9-9-7h9h--------------------|
|-7-h10-----------10-9-9---7h-10-----------10-9---------------|
|-------------------------------------------------------------|
|-------------------------------------------------------------|
						(4x)

  Visit MetalTabs.com for more metal tablature

bottom separator

Contact Us | Privacy Policy | Disclaimer | Legal Notice
Copyright © 2001-2014 MetalTabs.com. All Rights Reserved.