top separator

Home

Forum

What's New

Submit a Tab

FAQ

Links

Contact Us

Link to Us

MuSpy.com

MetalTabs.com logo

Bands

0-9

A

B

C

D

E

F

G

H

I

J

K

L

M

N

O

P

Q

R

S

T

U

V

W

X

Y

Z

Search

What

Where
 

Burzum - "Naar himmelen klarnar" Guitar Tab

Plain Text Version
More Burzum Tabs

Hits: 12137
Rated: 4.64 out of 5 (14 votes)
Updated: 2002-04-14 10:22:45

 

Important note
This tab is available online because we obtained explicit permission from Burzum or their label.


#----------------------------------PLEASE NOTE---------------------------------#
#This file is the author's own work and represents their interpretation of the #
#song. You may only use this file for private study, scholarship, or research. #
#Unless specified otherwise, this is NOT an official tab from the band members.#
#------------------------------------------------------------------------------#

  Visit MetalTabs.com for more metal tablature
  
Artist: Burzum
Album: Det Som En Gang Var
Song: Naar Himmelen Klarnar
Tabbed by: Daniel Molnar (Azrael666isGod@hotmail.com)

Well, no lies this isn't the most precise tab in the world, but at least the song is great. Previous
tabs don't have the most important part: the chord changes. That's what I tabbed this time.
Questions comments welcome.

Tuning: As standard as it gets (E-A-D-G-B-e for slow thinkers)

Verse 1
Guitar 1
|-----------------------------------------------------------------------------------------------
|-----------------------------------------------------------------------------------------------
|-----------------------------------------------------------------------------------------------
|----2-3----2-3-5-3-----------------------------------------------------------------------------
|--0------3-------------------------------------------------------------------------------------
|-----------------------------------------------------------------------------------------------

Guitar 2 (comes in after guitar 1 is played twice)
|-----------------------------------------------------------------------------------------------
|-----------------------------------------------------------------------------------------------
|--2------5-------------------------------------------------------------------------------------
|--2------5-------------------------------------------------------------------------------------
|--0------3-------------------------------------------------------------------------------------
|-----------------------------------------------------------------------------------------------

Verse 2
Guitar 1
|-----------------------------------------------------------------------------------------------
|-----------------------------------------------------------------------------------------------
|------0----------------------------------------------------------------------------------------
|----2---2---2-3-5-3-2-3------------------------------------------------------------------------
|--0--------------------------------------------------------------------------------------------
|----------1------------------------------------------------------------------------------------

Guitar 2
|-----------------------------------------------------------------------------------------------
|-----------------------------------------------------------------------------------------------
|--2--------------------------------------------------------------------------------------------
|--2-------3------------------------------------------------------------------------------------
|--0-------3------------------------------------------------------------------------------------
|----------1------------------------------------------------------------------------------------

Verse 3
Guitar 1
|-----------------------------------------------------------------------------------------------
|-----------------------------------------------------------------------------------------------
|------0----------------0-----------------0----------------0------------------------------------
|----2---2-----3------2---2-------------2---2-----3------2---2----------------------------------
|--0---------3---3--0--------3-3-2-2--0---------3---3--0--------3-3-5-5-------------------------
|----------1----------------------------------1-------------------------------------------------

Verse 4
Guitar 1
|-----------------------------------------------------------------------------------------------
|-----------------------------------------------------------------------------------------------
|-----------------------------------------------------------------------------------------------
|----2------3----2------------------------------------------------------------------------------
|--0---0--1----0---0----------------------------------------------------------------------------
|---------------------353-3-1~------------------------------------------------------------------

Guitar 2
|-----------------------------------------------------------------------------------------------
|-----------------------------------------------------------------------------------------------
|-----------------------------------------------------------------------------------------------
|---7-----5----7--------------------------------------------------------------------------------
|---7-----5----7--------------------------------------------------------------------------------
|---5-----6----5--------------------------------------------------------------------------------

Verse 5
Guitar 1
|-----------------------------------------------------------------------------------------------
|-----------------------------------------------------------------------------------------------
|-----------------------------------------------------------------------------------------------
|-----------------------------------------------------------------------------------------------
|----2-----3----2------5---3--------------------------------------------------------------------
|--0---0-1----0---0--3---1----------------------------------------------------------------------

Guitar 2
|-----------------------------------------------------------------------------------------------
|-----------------------------------------------------------------------------------------------
|-----------------------------------------------------------------------------------------------
|--2-----3----2------5---3----------------------------------------------------------------------
|--2-----1----2------5---1----------------------------------------------------------------------
|--0-----1----0------3---1----------------------------------------------------------------------

  Visit MetalTabs.com for more metal tablature

bottom separator

Contact Us | Privacy Policy | Disclaimer | Legal Notice
Copyright © 2001-2014 MetalTabs.com. All Rights Reserved.