top separator

Home

Forum

What's New

Submit a Tab

FAQ

Links

Contact Us

Link to Us

MuSpy.com

MetalTabs.com logo

Bands

0-9

A

B

C

D

E

F

G

H

I

J

K

L

M

N

O

P

Q

R

S

T

U

V

W

X

Y

Z

Search

What

Where
 

My Dying Bride - "From Darkest Skies" Guitar Tab

Plain Text Version
More My Dying Bride Tabs

Hits: 7405
Rated: 3.70 out of 5 (10 votes)
Updated: 2002-04-14 10:09:30

 

Important note
This tab is available online because we obtained explicit permission from My Dying Bride or their label.


#----------------------------------PLEASE NOTE---------------------------------#
#This file is the author's own work and represents their interpretation of the #
#song. You may only use this file for private study, scholarship, or research. #
#Unless specified otherwise, this is NOT an official tab from the band members.#
#------------------------------------------------------------------------------#

  Visit MetalTabs.com for more metal tablature
  
Band: My Dying Bride
Album: The Angel and the Dark River
Song: From darkest skies


Transcribed by: A. Kavasto (FIN)
E-Mail: bennox@dr.com



pm - palm mute
sl - slide
h - hammer on
p - pull off
ah - artificial harmony
t - tap

OK, I play this @ dropped to D.
I DON'T mark PALM MUTED notes, you hear them easily yourself.

Song starts with bass riff, then comes the violin.. then the guitar with this:

Riff 1 / Guit. 1
e-----------------------------------------------------------------------------
H-----------------------------------------------------------------------------
G-----------------------------------------------------------------------------
D------4----4-------4--------4----4----4--4 sl 6-----6 sl 7--7----------------
A----4---4--4--------------4---4--4-------------------------------------------
E-----------2---------------------2-------------------------------------------

------------------------------------------------------------------------------
e-----------------------------------------------------------------------------
H-----------------------------------------------------------------------------
G-----------------------------------------------------------------------------
D--7 sl 9 ---9--7--5--4--4 h6p4 4---------------------------------------------
A-----------------------------------------------------------------------------
E-----------------------------------------------------------------------------


Riff 1 / Guit. 2
e----------------------------------(this guitar plays this till second-riff)--
H-----------------------------------------------------------------------------
G-----------------------------------------------------------------------------
D------4----4----------------4----4----------4----5----------4----4-----------
A----4---4--4--------------4---4--4--------4---4--5--------4---4--4-----------
E-----------2---------------------2---------------3---------------2-----------


RIFF 1 is played 2x...


Riff 2 / Guit. 1   (OMG what-a-riff)
e-----------------------------------------------------------------------------
H-----------------------------------------------------------------------------
G-----------------------------------------------------------5-----------------
D--(--4--)-------2----2--2--2-------------------------------5--5--2-----------
A--(4---4)--3----2--------------3----3--2--3-----3--2--2----3--5--2-----------
E-------------3--0---------------------------------------------3--0-----------

Riff 2 / Guit. 2
e-----------------------------------------------------------------------------
H--this guit------------------------------------------------------------------
G--play harmonies-------------------------------------------5-----------------
D---over guit 1.------2--2--2---5----5--7--5--(5)7--5--4----5--5---2----------
A-note: not every-------------------------------------------3--5---2----------
E--------time..------------------------------------------------3---0----------


RIFF 2 is played 4x...



Fill after RIFF 2 / Guit. 1 & 2

e-----------------------------------------------------------------------------
H-----------------------------------------------------------------------------
G-----------------------------------------------------------------------------
D--2--2--2--------------------------------------------------------------------
A--2--2--2-etc...-------------------------------------------------------------
E--0--0--0--------------------------------------------------------------------
   pm......   (note: no pmuted at the end of this fill..)


Now comes RIFF 1 few times..


RIFF 3 / guit.1&2


e-----------------------------------------------------------------------------
H-------------------------------slight slide..--------------------------------
G-----------------------------------------------------------------------------
D---2---2-2-2--2--2-2-2--2--2--(14\)------------------------------------------
A---2---2-2-2--2--2-2-2--2--2--(14\)------------------------------------------
E---0---0-0-0--0--0-0-0--0--0--(12\)------------------------------------------


RIFF 4 / guit.1

e-----------------------------------------------------------------------------
H-----------------------------------------------------------------------------
G-----------------------------------------------------------------------------
D-----------------------------------------------------------------------------
A----------2---1--------------1--2--1-----------------------------------------
E--5--6---------------------------------1-------------------------------------


RIFF 4 / guit.2

e-----------------------------------------------------------------------------
H-----------------------------------------------------------------------------
G-----------------------------------------------------------------------------
D----------1---0--------------0--1--0-----------------------------------------
A--5--6-----------------------------------------------------------------------
E---------------------------------------1-------------------------------------


Repeat Riff 3 + 4 few times...



RIFF 5 / guit.1

e-----------------------------------------------------------------------------
H----------^ Maybe a light AH.. ----------------------------------------------
G-----------------------------------------------------------------------------
D----6--6-(5)-2---2--2---------------bend one step to G#----------------------
A----6--6-(5)-2---2--2---------------|----------------------------------------
E----4--4--3--0---0--0-----4--3-4-3--3--4-4--3---0--0--0------4--3--4--3------



RIFF 5 / guit.2                      ^

e------------------------------------^----------------------------------------
H---Same as guit.1 except plays harmonies since that one step bend..----------
G-----------------------------------------------------------------------------
D---------------------------------------6-6--5---2--2--2------6--5--6--5------
A---harmonies: -------------------------------------------------^ ------------
E------------------------------------>--------------------------|-------------
                                                                |
                                                                |
Repeat few times.. then start playing RIFF 2 from ----------------this point..
Harmonies guitar is playing a little different on the repeat of RIFF 2.. more
like the violin..->(5-7-5--5-7-5-4-4-slide-9..)



FILL after RIFF 2 / guit.1 [guit.2 is playing RIFF 3]

e-----------------------------------------------------------------------------
H-----------------------------------------------------------------------------
G-----------------------------------------------------------------------------
D--2--1---1-sl-2--2---1---1-sl-9----------------------------------------------
A-----------------------------------------------------------------------------
E-----------------------------------------------------------------------------


After this play few times RIFF 3 & 4...


ENDING..


e-----------------------------------------------------------------------------
H-----------------------------------------------------------------------------
G-----------------------------------------------------------------------------
D--2----2-2---2---2-----------------------------------------------------------
A--2----2-2---2---2-----------------------------------------------------------
E--0----0-0---0---0-----------------------------------------------------------



There's the whole song.. please e-mail me if you want to beat me or thank me!

  Visit MetalTabs.com for more metal tablature

bottom separator

Contact Us | Privacy Policy | Disclaimer | Legal Notice
Copyright © 2001-2014 MetalTabs.com. All Rights Reserved.