top separator

Home

Forum

What's New

Submit a Tab

FAQ

Links

Contact Us

Link to Us

MetalTabs.com logo

Bands

0-9

A

B

C

D

E

F

G

H

I

J

K

L

M

N

O

P

Q

R

S

T

U

V

W

X

Y

Z

Search

What

Where
 

The Moaning - "Blood from stone" Guitar Tab

Plain Text Version
More The Moaning Tabs

Hits: 3119
Rated: 4.20 out of 5 (5 votes)
Updated: 2002-04-14 05:05:44

 

Important note
We did our best to reach The Moaning and ask for their permission to publish this tab. Unfortunately they did not respond to our requests or we could not find a way to contact them. This tab is available online until The Moaning tells us to take it down.


#----------------------------------PLEASE NOTE---------------------------------#
#This file is the author's own work and represents their interpretation of the #
#song. You may only use this file for private study, scholarship, or research. #
#Unless specified otherwise, this is NOT an official tab from the band members.#
#------------------------------------------------------------------------------#

  Visit MetalTabs.com for more metal tablature
  
Band: The Moaning
Song: Blood From Stone
Album: Blood From Stone
Transcribed by Mark Broster (samu_law@hotmail.com)

Tuning: 1:D#  2:A#  3:F#  4:C#  5:G#  6:D#

... Tremelo Picking
.   Palm Muting

Riff 1				           	x2
|-----------------------------------------------------------------|
|-----------------------------------------------------------------|
|-----------------------------------------------------------------| Both Guitars
|-----6...10...6...-----6...11...6...-----6...------8...----------|
|-8...--------------8...-----------------------10...-----6...10...|
|-------------------------------------9...------------------- ----|

Riff 2						  x2
|--------------------------------------------------------------------|
|--------------------------------------------------------------------|
|--------------------------------------------------------------------| Guitar 1
|-----6...10...6...------6...11...6...------6...-------8...----------|
|-8...---------------8...-------------------------10...-----6...10...|
|---------------------------------------9...-------------------------|
|                                                                    |
|--------------------------------------------------------------------|
|--------------------------------------------------------------------|
|-------------------------------8...--------8...10...8...------------| Guitar 2
|-10...8...10...11...-----11...--------------------------11...-------|
|--------------------------------------------------------------------|
|--------------------------------------------------------------------|

Riff 1 x2
Riff 2 x2

Riff 3
|---------------------------------------------------|-------------------|
|---------------------------------------------------|-------------------|
|---------------------------------------------------|--------------10...| Guitar 1
|----10-----10--11-----------------------10-----10--|-----10...8...-----|
|-8888---8888---9--------12-------12--8888---8888---|-8...--------------|
|------------------10101010-10101010----------------|-------------------|
                                                    |                   |
                                                    |-------------------|
                                                    |-------------------|
                                                    |--------------10...| Guitar 2
                                                    |-----10...8...-----|
                                                    |-8...--------------|
                                                    |-------------------|

Riff 4						     x4
|---------------------------------------------------|-------------------|
|---------------------------------------------------|-------------------|
|---------------------------------------------------|-------------------| Both Guitars
|----10-----10--11-----------------------10-----10--|-----10...8...11...|
|-8888---8888---9--------12-------12--8888---8888---|-8...--------------|
|------------------10101010-10101010----------------|-------------------|

Riff 5 					        x2
|---------------------------------------------------------------|
|---------------------------------------------------------------|
|---------------------------------------------------------------| Both Guitars
|---------------------------------------------------------------|
|-8...-------------------------8...---------10...11...----------|
|-----11...9...8...6...8...9...----11...9...-----------9...8...-|

Riff 6
|---------------------------------------------------------------|
|---------------------------------------------------------------|
|---------------------------------------------------------------| Guitar 1
|---------------------------------------------------------------|
|-8...-------------------------8...---------10...11...----------|
|-----11...9...8...6...8...9...----11...9...-----------9...8...-|
|                                                               |
|---------------------------------------------------------------|
|---------------------------------------------------------------|
|----------------------9..10..----------------------------------| Guitar 2
|-10...8...----10..8...--------10...8...-----8...10...----------|
|----------11..------------------------11...----------10...8...-|
|---------------------------------------------------------------|

Riff 5 x2
Riff 6 x2

Riff 7	                x2
|---------------------------|
|---------------------------|
|---------------------------| Both Guitars
|-10--8---10--8---6---8-----|
|-8...6...8...6...4...6...--|
|---------------------------|

Riff 8		        x2
|------------------------------|
|------------------------------|
|-10--8---10--13---------------| Guitar 1
|-8...6...8...11...8---6/7-----|
|------------------6...4/5...--|
|------------------------------|
|                              |
|------------------------------|
|------------------------------|
|------------------------------|	Guitar 2
|-4---2---4---7----8---6/7-----|
|-2...0...2...5... 6...4/5...--|
|------------------------------|

Riff 7 x2
Riff 8 x2

Riff 9
|------------------------------------------------------11-9-8h9p8-----|
|------------------------------9-8------------9-8-9-11------------9---|
|-----8-8-10-10-----8-8-10-10------10-8-10-10-------------------------| Guitar 1
|-8-8-----------8-8---------------------------------------------------|
|---------------------------------------------------------------------|
|---------------------------------------------------------------------|
|                                                                     |
|---------------------------------------------------------------------|
|---------------------------------------------------------------------|
|---------------------------------------------------------------------| Guitar 2
|---------------------------------------------------------------------|
|-3-------------3---------------6-------------------------------------|
|-1-------------1-----------1-1-4-------------------------------------|
  .             .           . .

|------------------------------------------------------11-9-8h9p8-----|
|------------------------------9-8------------9-8-9-11------------9---|
|-----8-8-10-10-----8-8-10-10------10-8-10-10-------------------------| Guitar 1
|--8-8------------8-8-------------------------------------------------|
|---------------------------------------------------------------------|
|---------------------------------------------------------------------|
|                                                                     |
|---------------------------------------------------------------------|
|---------------------------------------------------------------------|
|---------------------------------------------------------------------| Guitar 2
|---------------------------------------------------------------------|
|-3-------------3---------------6-------------6--------8--------------|
|-1-------------1-----------1-1-4-------------4--------6--------------|
                            . .

|------------------------------------------------------11-9-8h9p8-----|
|------------------------------9-8------------9-8-9-11------------9---|
|-----8-8-10-10-----8-8-10-10------10-8-10-10-------------------------| Guitar 1
|--8-8----------8-8---------------------------------------------------|
|---------------------------------------------------------------------|
|---------------------------------------------------------------------|
|                                                                     |
|---------------------------------------------------------------------|
|---------------------------------------------------------------------|
|---------------------------------------------------------------------| Guitar 2
|---------------------------------------------------------------------|
|-3-------------3---------------6-------------------------------------|
|-1-------------1-----------1-1-4-------------------------------------|
  .             .           . .
|------------------------------------------------------11-9-8h9p8-----|
|------------------------------9-8------------9-8-9-11------------9---|
|-----8-8-10-10-----8-8-10-10------10-8-10-10-------------------------| Guitar 1
|--8-8----------8-8---------------------------------------------------|
|---------------------------------------------------------------------|
|---------------------------------------------------------------------|
|                                                                     |
|---------------------------------------------------------------------|
|---------------------------------------------------------------------|
|---------------------------------------------------------------------| Guitar 2
|---------------------------------------------------------------------|
|-3-------------3---------------6-------------6--------8--------------|
|-1-------------1-----------1-1-4-------------4--------6--------------|
  .             .           . .

|---------------------------------|
|---------------------------------|
|---------------------------------| Both Guitars
|-10----10-------------6------6/8-|
|-8-----8----11--11----4------4/6-|
|------------9---9----------------|
             .   .

Riff 3 x1
Riff 4 x4
Riff 1 x2
Riff 2 x2
Riff 1 x2
Riff 2 x2
Riff 6 x1
End.

  Visit MetalTabs.com for more metal tablature

bottom separator

Contact Us | Privacy Policy | Disclaimer | Legal Notice
Copyright © 2001-2014 MetalTabs.com. All Rights Reserved.