top separator

Home

Forum

What's New

Submit a Tab

FAQ

Links

Contact Us

Link to Us

MetalTabs.com logo

Bands

0-9

A

B

C

D

E

F

G

H

I

J

K

L

M

N

O

P

Q

R

S

T

U

V

W

X

Y

Z

Search

What

Where
 

Lake of Tears - "The four strings of mourning" Guitar Tab

Plain Text Version
More Lake of Tears Tabs

Hits: 3742
Rated: 3.00 out of 5 (1 vote)
Updated: 2002-04-14 04:43:10

 

Important note
This tab is available online because we obtained explicit permission from Lake of Tears or their label.


#----------------------------------PLEASE NOTE---------------------------------#
#This file is the author's own work and represents their interpretation of the #
#song. You may only use this file for private study, scholarship, or research. #
#Unless specified otherwise, this is NOT an official tab from the band members.#
#------------------------------------------------------------------------------#

  Visit MetalTabs.com for more metal tablature
  
Artist: Lake of Tears
Song: The Four Strings of Morning
Album: A Crimson Cosmos
Tabbed by: Kyle McIntyre (moonsblade@hotmail.com)

As far as I can tell, this song has two guitars and they
both  play together until the chorus, where one continues
using power chords while another does the neat sounding echo part. (Hence spinning?)
I've tabbed the unison part and then split it into two guitar parts after that.
I'm sorry to say I don't have any idea how the actual solo goes other than it's over
D. I did, however figure out the part played under it.

/=slide
h=hammer on
p=pull off


Intro and Verse:
----------------------------------------------------------------------------------
----------------------------------------------------------------------------------
--5/7-x-7---------3/5-x-5-2-----2/3-x-3-------------------------------------------
--5/7-x-7---------3/5-x-5-2-----2/3-x-3-------------------------------------------
--3/5-x-5---------1/3-x-3-0-----0/1-x-1-------------------------------------------
----------------------------------------------------------------------------------

Bridge: (Play once on first time, twice before chorus)
----------------------------------------------------------------------------------
----------------------------------------------------------------------------------
---5--7--3------------------------------------------------------------------------
---5--7--3------------------------------------------------------------------------
---3--5--1------------------------------------------------------------------------
----------------------------------------------------------------------------------

Chorus

-Guitar Split-
Guitar 1 :
----------------------------------------------------------------------------------
----------------------------------------------------------------------------------
--7~----------7-5-3~--------------3-5-7~------------------------------------------
--7~----------7-5-3~--------------3-5-7~------------------------------------------
--5~----------5-3-1~--------------1-3-5~------------------------------------------
----------------------------------------------------------------------------------
Repeat several times, then:

----------------------------------------------------------------------------------
----------------------------------------------------------------------------------
--2~------------------------------------------------------------------------------
--2~------------------------------------------------------------------------------
--0~------------------------------------------------------------------------------
----------------------------------------------------------------------------------

Guitar 2 (On the off-beats)

----------------------------------------------------------------------------------
----------------------------------------------------------------------------------
----------------------------------------------------------------------------------
--7---5---7--5---10---------------------------------------------------------------
----------------------8---7---8---7--8~------------------------------------------
----------------------------------------------------------------------------------


Repeat Verse and Chorus, then if you want to attempt the solo, here is the
background part.

----------------------------------------------------------------------------------
----------------------------------------------------------------------------------
---7-----------5----------------7-------------------------------------------------
---7-----------5----------------7-------------------------------------------------
---5-----7h8p7-3------7h8p7h8-7-5-------------------------------------------------
----------------------------------------------------------------------------------

Repeat

Good luck and have fun. Email comments or additions to me at moonsblade@hotmail.com

  Visit MetalTabs.com for more metal tablature

bottom separator

Contact Us | Privacy Policy | Disclaimer | Legal Notice
Copyright © 2001-2014 MetalTabs.com. All Rights Reserved.