top separator

Home

Forum

What's New

Submit a Tab

FAQ

Links

Contact Us

Link to Us

MuSpy.com

MetalTabs.com logo

Bands

0-9

A

B

C

D

E

F

G

H

I

J

K

L

M

N

O

P

Q

R

S

T

U

V

W

X

Y

Z

Search

What

Where
 

Blood Duster - "Pornstorestiffi" Guitar Tab

Plain Text Version
More Blood Duster Tabs

Hits: 5238
Rated: 3.78 out of 5 (9 votes)
Updated: 2002-04-14 04:21:56

 

Important note
This tab is available online because we obtained explicit permission from Blood Duster or their label.


#----------------------------------PLEASE NOTE---------------------------------#
#This file is the author's own work and represents their interpretation of the #
#song. You may only use this file for private study, scholarship, or research. #
#Unless specified otherwise, this is NOT an official tab from the band members.#
#------------------------------------------------------------------------------#

  Visit MetalTabs.com for more metal tablature
  
Band:  Blood Duster
Album: CUNT
Song:  PORNSTORESTIFFI

"Guitarmageddon" tab

Copyright (c)  Dr.Jims/Relapse
Version 1.0 - 13/03/02

Transcribed By: Greg Maguire
Email: spiritech@neo-tokyo.org

Tuned down to dropped C

Riff 1
x 8
D||--------------------------|
A||--------------------------|
F||--------------------------|
C||-----------------3--------|
G||--5--3--5--0--1--1--3--4--|
C||--5--3--5--0--1-----3--4--|

Riff 2
----------------------|
----------------------|
----------------------|
------------5---------|
--5----3----3----3/---|
--5----3---------3/---|

Verse
x 4
This might only be played on the top string....whatever sounds best
----------------------------------|----------------------------------|
----------------------------------|----------------------------------|
----------------------------------|----------------------------------|
----------------------------------|----------------------------------|
--5-5-5-5-5-5-5-5-5-5-5-5-5-5-5-5-|--5-5-5-5-5-5-5-5-5-5-5-5-5-5-3-4-|
--5-5-5-5-5-5-5-5-5-5-5-5-5-5-5-5-|--5-5-5-5-5-5-5-5-5-5-5-5-5-5-3-4-|
PM. . . . . . . . . . . . . . . .    . . . . . . . . . . . . . .


Then:
Riff 1 x 4 (?)
Riff 2 x 1
Verse x 2


Riff 3
x 4
|----------------------------|----------------------------||
|----------------------------|----------------------------||
|----------------------------|-----------5----------------||
|-----------3--------3p0-----|--7--5--7--3--------3p0-----||
|--5--3--5--1----3h5-----3p0-|--5--3--5-------3h5-----3p0-||
|--5--3--5-------------------|----------------------------||


Play Riff 1 some more and finish

  Visit MetalTabs.com for more metal tablature

bottom separator

Contact Us | Privacy Policy | Disclaimer | Legal Notice
Copyright © 2001-2014 MetalTabs.com. All Rights Reserved.