top separator

Home

Forum

FAQ

Contact Us

Link to Us

MetalTabs.com logo

Bands

0-9

A

B

C

D

E

F

G

H

I

J

K

L

M

N

O

P

Q

R

S

T

U

V

W

X

Y

Z

Cradle of Filth - "All Hope In Eclipse" Guitar Tab

Plain Text Version
More Cradle of Filth Tabs

Hits: 9875
Rated: 2.95 out of 5 (44 votes)
Updated: 2002-04-14 04:02:22


#----------------------------------PLEASE NOTE---------------------------------#
#This file is the author's own work and represents their interpretation of the #
#song. You may only use this file for private study, scholarship, or research. #
#Unless specified otherwise, this is NOT an official tab from the band members.#
#------------------------------------------------------------------------------#

  Visit MetalTabs.com for more metal tablature
  
Band:  Cradle of Filth
Album: Bitter Suites To Succubi
Song:  All Hope Lies In Eclipse



Transcribed By: Shaun XXX
Email:          FilthyvampyreXXX@aol.com



.  - palm mute           /  - slide up to
\  - slide down to       ~  - vibrato
h  - hammer on           b  - Bend
p  - pull off            Suffixes for bend
t  - tap                 f  - full bend    h - half bend
ph - pinched harmonic    q  - quarter bend t - tap bend
*  - see comment         ^  - Hold bend    r release bend
x  - Stuccatto           ~  - vibrato bend
,  - slight palm mute    () - ghost note, sustained note
"  - tremolo note        <> - Trill

Tunning (low to high) D G C F A D


Riff 1   Legion I arose...
Play pretty fast
|-------------------------------------------------------------|
|-.---------------------------------------------------------.-|
|---7--8--7----7--8--7---10---8--7--8-------------------------|
|-.-0--0--0----0--0--0----0---0--0--0-----------------------.-|
|-------------------------------------------------------------|
|-------------------------------------------------------------|

Riff 2
|-------------------------------------------------------------|
|-------------------------------------------------------------|
|-----7--8--7----7--8--7--10---8--7--8------8--7---7--8--7----|
|--6--0--0--0----0--0--0---0---0--0--0--5---0--0---0--0--0----|
|-------------------------------------------------------------|
|-------------------------------------------------------------|
Continued...
|----------------|
|----------------|
|-10--8--7--8----|
|--0--0--0--0----|
|----------------|
|----------------|
This is all I have right now Iíll be updated it soon

Any comment question email me at FilthyVampyreXXX@aol.com thanx,
                                                            Shaun XXX

  Visit MetalTabs.com for more metal tablature

bottom separator

Contact Us | Privacy Policy | Disclaimer
Copyright © 2001-2014 MetalTabs.com. All Rights Reserved.