top separator

Home

Forum

FAQ

Contact Us

Link to Us

MetalTabs.com logo

Bands

0-9

A

B

C

D

E

F

G

H

I

J

K

L

M

N

O

P

Q

R

S

T

U

V

W

X

Y

Z

Deicide - "Lunatic Of Godís Creation" Guitar Tab

Plain Text Version
More Deicide Tabs

Hits: 10516
Rated: 4.33 out of 5 (6 votes)
Updated: 2003-06-01 12:06:24

By:

INVERTED


#----------------------------------PLEASE NOTE---------------------------------#
#This file is the author's own work and represents their interpretation of the #
#song. You may only use this file for private study, scholarship, or research. #
#Unless specified otherwise, this is NOT an official tab from the band members.#
#------------------------------------------------------------------------------#

  Visit MetalTabs.com for more metal tablature
  
                            LUNATIC OF GODS CREATION
                             As recorded by Deicide
                          (From the 1991 Album DEICIDE)

Words by Glen Benton
Music by Deicide
Transcribed by James Williams (Inverted)
Email Inverted_one@hotmail.com

Gtr I (Eb Ab Db Gb Bb Eb) - 'Brian Hoffman'
Gtr II (Eb Ab Db Gb Bb Eb) - 'Eric Hoffman'

 Intro
  Fast Metal Q=182
 4/4
  Gtr I
  S S S S S S S S S S S S S S S S   S S S S S S S S S S S S S S S S
|---------------------------------|----------------------------------|
|---------------------------------|----------------------------------|
|---------------------------------|----------------------------------|
|-2-2-2-2-2-2-2-2-2-2-2-2-2-2-2-2-|-2-2-2-2-2-2-2-2-2-2-2-2-2-2-2-2--|
|---------------------------------|----------------------------------|
|---------------------------------|----------------------------------|
|
| Gtr II
| S S S S S S S S S S S S S S S S   S S S S S S S S S S S S S S S S
|---------------------------------|----------------------------------|
|---------------------------------|----------------------------------|
|---------------------------------|----------------------------------|
|---------------------------------|----------------------------------|
|---------------------------------|----------------------------------|
|-0-0-0-0-0-0-0-0-0-0-0-0-0-0-0-0-|-0-0-0-0-0-0-0-0-0-0-0-0-0-0-0-0--|


 4/4
  Gtrs I, II
  PM------------------------------------------------------------------|
  E E E E E E E E   E E E E E E E E   E E E E E E E E   E E E E E E E E
|-----------------|-----------------|-----------------|------------------|
|-----------------|-----------------|-----------------|------------------|
|-----------------|-----------------|-----------------|------------------|
|-------------2-1-|-3-2---2-1-------|-------------2-1-|-3-2---2-1--------|
|-2-1---3-2-1-----|-----3-----3-2-1-|-2-1---3-2-1-----|-----3-----3-2-1--|
|-----2-----------|-----------------|-----2-----------|------------------|


 4/4
  Gtr I
  PM-------------------------------------
  E E E  E E E E E    E E  E E E  E E E
|------------------|--------------------|
|------------------|--------------------|
|------------------|--------------------|
|--------------2-1-|--3-2----2-1--------|
|-2-1----3-2-1-----|-------3------3-2-1-|
|-----2------------|--------------------|
|
| Gtr II
| PM-------------------------------------
| E E E  E E E E E    E E  E E E  E E E
|------------------|--------------------|
|------------------|--------------------|
|--------------9-8-|-10-9----9-8--------|
|-9-8---10-9-8-----|------10-----10-9-8-|
|-----9------------|--------------------|
|------------------|--------------------|


 -------------------------------------|
  E E E  E E E E E    E E  E E E  E E E
|------------------|---------------------|
|------------------|---------------------|
|------------------|---------------------|
|--------------2-1-|--3-2----2-1---------|
|-2-1----3-2-1-----|-------3------3-2-1--|
|-----2------------|---------------------|
|
|-------------------------------------|
| E E E  E E E E E    E E  E E E  E E E
|------------------|---------------------|
|------------------|---------------------|
|--------------9-8-|-10-9----9-8---------|
|-9-8---10-9-8-----|------10-----10-9-8--|
|-----9------------|---------------------|
|------------------|---------------------|


    Q=160
                                                              F5 E5
    Gtrs I, II
    S S S S S S S S S S S S S S S S   S S S S S S S S S S S S  S S +E    4x
||----------------------------------|------------------------------------||
||o---------------------------------|-----------------------------------o||
||----------------------------------|------------------------------------||
||----------------------------------|-------------------------10-9-(9)\--||
||o---------------------------------|--------------------------8-7-(7)\-o||
||--1-1-1-1-4-4-4-4-3-3-3-3-6-6-6-6-|-5-5-5-5-8-8-8-8-7-7-7-7------------||


   Verse 1
    $
   3/4
    S S S S S S S S S S S S   S S S S S S S S S S S S 10x
||--------------------------|--------------------------||
||o-------------------------|-------------------------o||
||--------------------------|--------------------------||
||--------------------------|--------------------------||
||o-------------------------|-------------------------o||
||--1-1-1-1-4-4-4-4-3-3-3-3-|-3-3-3-3-6-6-6-6-4-4-3-3--||


   4/4
    S S S S S S S S S S S S S S S S   S S S S S S S S S S S S S S S S
||----------------------------------|---------------------------------|
||o---------------------------------|---------------------------------|
||----------------------------------|---------------------------------|
||----------------------------------|---------------------------------|
||o-----------------3-3-3-3-2-2-2-2-|---------------------------------|
||--0-0-0-0-1-1-1-1-----------------|-0-0-0-0-1-1-1-1-4-4-4-4-3-3-3-3-|


  S S S S S S S S S S S S S S S S   S S S S S S S S S S S S S S S S
|---------------------------------|----------------------------------||
|---------------------------------|---------------------------------o||
|---------------------------------|----------------------------------||
|---------------------------------|----------------------------------||
|---------------------------------|-----------------3-3-3-3-2-2-2-2-o||
|-0-0-0-0-1-1-1-1-4-4-4-4-3-3-3-3-|-0-0-0-0-1-1-1-1------------------||


   Verse 2
     Q=182
To Coda
     PM------------------------------------------------------------------|
     E E E E E E E E   E E E E E E E E   E E E E E E E E   E E E E E E E E  3x
||-------------------|-----------------|-----------------|------------------||
||o------------------|-----------------|-----------------|-----------------o||
||-------------------|-----------------|-----------------|------------------||
||---3-2---2-1-------|-----------------|-3-2---2-1-------|------------------||
||o------3-----3-2-1-|-3-2---2-1-------|-----3-----3-2-1-|-3-2---2-1-------o||
||-------------------|-----3-----3-2-1-|-----------------|-----3-----3-2-1--||


                                                                G5E5F5
  PM----------------------------------------------------------|
  E E E E E E E E   E E E E E E E E   E E E E E E E E   E E E E E E Q
|-----------------|-----------------|-----------------|----------------|
|-----------------|-----------------|-----------------|----------------|
|-----------------|-----------------|-----------------|----------------|
|-3-2---2-1-------|-----------------|-3-2---2-1-------|----------------|
|-----3-----3-2-1-|-3-2---2-1-------|-----3-----3-2-1-|-3-2---2-5-2-3--|
|-----------------|-----3-----3-2-1-|-----------------|-----3---3-0-1--|


  Q=160
 1/2      4/4
  Gtr I
  H        S S S S S S S S S S S S S S S S
|------||----------------------------------|
|------||o---------------------------------|
|------||----------------------------------|
|------||----------------------------------|
|------||o---------------------------------|
|------||--1-1-1-1-4-4-4-4-3-3-3-3-6-6-6-6-|
|
| Gtr II
| H        W
|------||----------------------------------|
|------||o---------------------------------|
|------||----------------------------------|
|------||----------------------------------|
|------||o---------------------------------|
|------||----------------------------------|


                           F5 E5
  S  S S S S S S S S S S S  S S +E
|-------------------------------------||
|------------------------------------o||
|-------------------------------------||
|--------------------------10-9-(9)\--||
|---------------------------8-7-(7)\-o||
|-5--5-5-5-8-8-8-8-7-7-7-7------------||
|
| H.                        S S +E
|-------------------------------------||
|------------------------------------o||
|-------------------------------------||
|--------------------------10-9-(9)\--||
|---------------------------8-7-(7)\-o||
|-------------------------------------||


                                                              F5 E5
    Gtrs I, II
    S S S S S S S S S S S S S S S S   S S S S S S S S S S S S  S S +E    4x
||----------------------------------|------------------------------------||
||o---------------------------------|-----------------------------------o||
||----------------------------------|------------------------------------||
||----------------------------------|-------------------------10-9-(9)\--||
||o---------------------------------|--------------------------8-7-(7)\-o||
||--1-1-1-1-4-4-4-4-3-3-3-3-6-6-6-6-|-5-5-5-5-8-8-8-8-7-7-7-7------------||


   Verse 3
     Q=182
D.S. al Coda
    &
   4/4
     PM------------------------------------------------------------------|
     E E E E E E E E   E E E E E E E E   E E E E E E E E   E E E E E E E E   3x
||-------------------|-----------------|-----------------|-------------------||
||o------------------|-----------------|-----------------|------------------o||
||-------------------|-----------------|-----------------|-------------------||
||---------------2-1-|-3-2---2-1-------|-------------2-1-|-3-2---2-1---------||
||o--2-1---3-2-1-----|-----3-----3-2-1-|-2-1---3-2-1-----|-----3-----3-2-1--o||
||-------2-----------|-----------------|-----2-----------|-------------------||


                                                                G5E5F5
 4/4
  PM----------------------------------------------------------|
  E E E E E E E E   E E E E E E E E   E E E E E E E E   E E E E E E Q
|-----------------|-----------------|-----------------|-----------------*|
|-----------------|-----------------|-----------------|-----------------*|
|-----------------|-----------------|-----------------|-----------------*|
|-------------2-1-|-3-2---2-1-------|-------------2-1-|-3-2---2---------*|
|-2-1---3-2-1-----|-----3-----3-2-1-|-2-1---3-2-1-----|-----3---5-2-3---*|
|-----2-----------|-----------------|-----2-----------|---------3-0-1---*|


Duration Legend
---------------
W - whole; H - half; Q - quarter; E - 8th; S - 16th; T - 32nd; X - 64th; a - acciaccatura
+ - note tied to previous; . - note dotted; .. - note double dotted
Uncapitalized letters represent notes that are staccato (1/2 duration)
Irregular groupings are notated above the duration line
Duration letters will always appear directly above the note/fret number it represents the
duration for.  Duration letters with no fret number below them represent rests.  Multi-
bar rests are notated in the form Wxn, where n is the number of bars to rest for.  Low
melody durations appear below the staff

Tablature Legend
----------------
 h   - hammer-on
 p   - pull-off
 b   - bend
 pb  - pre-bend
 r   - bend release (if no number after the r, then release immediately)
 /\  - slide into or out of (from/to "nowhere")
 s   - legato slide
 S   - shift slide
<n>  - natural harmonic
[n]  - artificial harmonic
n(n) - tapped harmonic
 ~   - vibrato
 tr  - trill
 T   - tap
 TP  - trem. picking
 PM  - palm muting
\n/  - tremolo bar dip; n = amount to dip
 \n  - tremolo bar down
 n/  - tremolo bar up
/n\  - tremolo bar inverted dip
 =   - hold bend; also acts as connecting device for hammers/pulls
 <>  - volume swell (louder/softer)
 x   - on rhythm slash represents muted slash
 o   - on rhythm slash represents single note slash

Misc Legend
-----------
 |  - bar
||  - double bar
||o - repeat start
o|| - repeat end
*|  - double bar (ending)
 :  - bar (freetime)
 $  - Segno
 &  - Coda
Tempo markers - <E/E./Q/Q./H/H.> = BPM(8/16=s8/s16), where s8 = swing 8ths, s16 = swing 16ths

  Visit MetalTabs.com for more metal tablature

bottom separator

Contact Us | Privacy Policy | Disclaimer
Copyright © 2001-2014 MetalTabs.com. All Rights Reserved.