top separator

Home

Forum

What's New

Submit a Tab

FAQ

Links

Contact Us

Link to Us

MuSpy.com

MetalTabs.com logo

Bands

0-9

A

B

C

D

E

F

G

H

I

J

K

L

M

N

O

P

Q

R

S

T

U

V

W

X

Y

Z

Search

What

Where
 

My Dying Bride - "The Whore, The Cook and the Mother" Guitar Tab

Plain Text Version
More My Dying Bride Tabs

Hits: 4496
Rated: 2.25 out of 5 (4 votes)
Updated: 2002-03-18 01:35:54

 

Important note
This tab is available online because we obtained explicit permission from My Dying Bride or their label.


#----------------------------------PLEASE NOTE---------------------------------#
#This file is the author's own work and represents their interpretation of the #
#song. You may only use this file for private study, scholarship, or research. #
#Unless specified otherwise, this is NOT an official tab from the band members.#
#------------------------------------------------------------------------------#

  Visit MetalTabs.com for more metal tablature
  
Artist: My Dying Bride
Song: The Whore, The Cook And The Mother
Album: 34.788%... Complete

Tabbed by: Tom S. van Iersel   vahmpire666@vampirefreaks.com

This is the heavy part of the song.
Note!
My gtr is tuned to: C# Ab Db Gb Bb Eb this is NOT the regular
tuning but you can play it with this tuning also.

Key:
/ = slide
pm.. = palm mute
o| = repeat
  |
/  = bend up
( )= ghost note or note you could play


Intro with effects:
------------------------------------|
------------------------|bend up----|
-----------------------/------------|
7--/-9-9-/-10-10-/-12-/-------------|
5--/-7-7-/-8--8--/-10---------------|
------------------------------------|

Riff A
---------------------------------------------
---------------------------------------------
---------------------------------------------
0---0-0-0--0---0-0-0--0---0-0-0--0---0-0-0---
0---0-0-0--0---0-0-0--0---0-0-0--0---0-0-0---
0---0-0-0--0---0-0-0--0---0-0-0--0---0-0-0---

----------------------------------------------|
----------------------------------------------|
---------------------------------------------o|
3---3-3-3--3---3-3-3--5---5-5-5--5---5-5-5---o|
3---3-3-3--3---3-3-3--5---5-5-5--5---5-5-5----|
3---3-3-3--3---3-3-3--5---5-5-5--5---5-5-5----|

Lead gtr in part B
-------8-----------------8-------------------|
----7-8--8-7--5-7-----7-8--8-7--5-7----------|
7--9--------------7--9----------------------o|
--------------------------------------------o|
---------------------------------------------|
---------------------------------------------|

-------8-------------------------------------|
----7-8--8-7--5-7----10-8-13-12--8-7-5-/-7---|
7--9---------------9-------------------------|
---------------------------------------------|
---------------------------------------------|
---------------------------------------------|

Back to Riff A

Riff C                                     1.--------)
------------------------------------------|--------------|
------------------------------------------|--------------|
------------------------------------------|-------------o|
/7-6------------(5)(3)(1)-------(3)(1)(0)-|-(77777777)--o|
/5-4-8-7-(7777)--5--3--1-(1111)--3--1--0--|-(55555555)---|
-----8-7-(7777)--5--3--1-(1111)--3--1--0--|-(00000000)---|
pm        ....            ....

Then comes the clean guitar part.
After clean gtr part back to Riff A and play everything again.
At the end, don-t play 1. of Riff C, just let the last chord ring.
Chord: -(0)-|
       --0--|
       --0--|
End.





x_^Vahmpy^_x
============
dark salutes

  Visit MetalTabs.com for more metal tablature

bottom separator

Contact Us | Privacy Policy | Disclaimer | Legal Notice
Copyright © 2001-2014 MetalTabs.com. All Rights Reserved.