top separator

Home

Forum

What's New

Submit a Tab

FAQ

Links

Contact Us

Link to Us

MuSpy.com

MetalTabs.com logo

Bands

0-9

A

B

C

D

E

F

G

H

I

J

K

L

M

N

O

P

Q

R

S

T

U

V

W

X

Y

Z

Search

What

Where
 

Katatonia - "Quiet world" Guitar Tab

Plain Text Version
More Katatonia Tabs

Hits: 7572
Rated: 3.88 out of 5 (8 votes)
Updated: 2002-03-10 06:47:15

 

Important note
This tab is available online because we obtained explicit permission from Katatonia or their label.


#----------------------------------PLEASE NOTE---------------------------------#
#This file is the author's own work and represents their interpretation of the #
#song. You may only use this file for private study, scholarship, or research. #
#Unless specified otherwise, this is NOT an official tab from the band members.#
#------------------------------------------------------------------------------#

  Visit MetalTabs.com for more metal tablature
  
Artist: Katatonia
Album: Saw You Drawn
Track: Quiet World
Tabbed by: Alberto Urra <urra1980@hotmail.com>
17th Feb 2002

Tuning is regular –D#-G#-C#-F#-A#-D#-

Listen to the song to know how many times you have to pick each note.

++++++++++++++++++++++++++++++++++++++++++++++++++++++++++++++++++++++

PART 1

|--------|
|--------|
|--------|
|--11----|
|--0-----|
|--------|

Then bend the 11 and continue with:

|---------------------|
|---------------------|
|---------------------|
|--4-4-4-4---6-6-6-6--|
|--4-4-4-4---4-4-4-4--|
|--2-2-2-2---2-2-2-2--|


PART 2

|------------------|
|------------------|
|--9----12---------|
|--10---10---9-----|
|--0----0----10----|
|------------0-----|

|---------------------|
|---------------------|
|--7-7-7-7---5-5-5-5--|
|--9-9-9-9---7-7-7-7--|
|--9-9-9-9---7-7-7-7--|
|---------------------|


PART 3 (DISTORTION)

Guitar 1

|-----------------|
|-----------------|
|------0----------|
|--4---4---4---4--|
|--2---3---0---0--|
|--0-------3---2--|

Guitar 2*

|--7------7--------|
|----0------0------|
|------5------5----|
|------------------|
|------------------|
|------------------|

*This is the picking on top going round and round.


THATīS ALL. ENJOY THIS MARVELOUS SONG.

  Visit MetalTabs.com for more metal tablature

bottom separator

Contact Us | Privacy Policy | Disclaimer | Legal Notice
Copyright © 2001-2014 MetalTabs.com. All Rights Reserved.