top separator

Home

Forum

What's New

Submit a Tab

FAQ

Links

Contact Us

Link to Us

MetalTabs.com logo

Bands

0-9

A

B

C

D

E

F

G

H

I

J

K

L

M

N

O

P

Q

R

S

T

U

V

W

X

Y

Z

Search

What

Where
 

Saturnus - "Noir" Guitar Tab

Plain Text Version
More Saturnus Tabs

Hits: 5118
Rated: 5.00 out of 5 (2 votes)
Updated: 2002-03-10 06:33:05

 

By:

Father Death

sendpm.gif

email.gif

Important note
This tab is available online because we obtained explicit permission from Saturnus or their label.


#----------------------------------PLEASE NOTE---------------------------------#
#This file is the author's own work and represents their interpretation of the #
#song. You may only use this file for private study, scholarship, or research. #
#Unless specified otherwise, this is NOT an official tab from the band members.#
#------------------------------------------------------------------------------#

  Visit MetalTabs.com for more metal tablature
  
Band:  SATURNUS
Album: Martyre
Song:  Noir

Transcribed by:	Chris Humeniuk
Email:  father_death_666&hotmail.com

Tuning:	1.5 steps down

Keys:
  h  - hammer on
/ \ - slide
  b  - bend
  r  - release bend


RIFF 1:
(Gtr 1)
|---------------------------------------------------
|----------5-----------------------5-----------2h3--
|-2--2--2-----2--2--2--4--------------5--5--5-------
|-2--2--2-----2--2--2-----2--2--2-----5--5--5-------
|-0--0--0-----0--0--0-----2--2--2-----3--3--3-------
|-------------------------0--0--0-----3--3--3-------

(Gtr 2)
|---------------------------------------------------
|---------------------------------------------------
|----------9-----------7-----------9--5--5--5--4/7--
|-7--7--7-----7--7--7-----2--2--2-----5--5--5-------
|-7--7--7-----7--7--7-----2--2--2-----3--3--3-------
|-5--5--5-----5--5--5-----0--0--0-----3--3--3-------

(Gtr 1)
----------------------------------------------------|
----------5-----------------------5-----------3h5p3-|
-2--2--2-----2--2--2--4--------------7--7--7--------|
-2--2--2-----2--2--2-----2--2--2-----7--7--7--------|
-0--0--0-----0--0--0-----2--2--2-----5--5--5--------|
-------------------------0--0--0-----5--5--5--------|

(Gtr 2)
----------------------------------------------------|
----------------------------------------------------|
----------9-----------7-----------9--7--7--7--7h9p7-|
-7--7--7-----7--7--7-----2--2--2-----7--7--7--------|
-7--7--7-----7--7--7-----2--2--2-----5--5--5--------|
-5--5--5-----5--5--5-----0--0--0-----5--5--5--------|
                                               (2x)

RIFF 2:
(clean)
|-------------------------------------
|-------0--------0--------0------1-0--
|-----2--------2--------2-------------
|---2--------2-----------------2------
|-0--------0----------2------3--------
|-------------------0-----------------

-------------------------------------|
-------0--------0--------0------1-0--|
-----2--------2--------2------2------|
---2--------2---------------0--------|
-0--------0----------2---------------|
-------------------0-----------------|
                                (2x)

RIFF 1 - (2x)

RIFF 2 - (2x)

RIFF 1 - (2x)


Interlude:
(clean)
|-------------------------------------|
|-------0--------------------------0--|
|-----2----------0--------0------2----|
|---2----------3--------3----0-2------|
|-0----------3--------3---------------|
|----------1--------1-----------------|
                                (4x)

Outro:
(Gtr 1 - played 'till end)
|-------------------------------------------------|
|-------------------------------------------------|
|-------------------------------------7--7--7-7-7-|
|-7--7--7-7-7-3--3--3-3-3-3--3--3-3-3-7--7--7-7-7-|
|-7--7--7-7-7-3--3--3-3-3-3--3--3-3-3-5--5--5-5-5-|
|-5--5--5-5-5-1--1--1-1-1-1--1--1-1-1-5--5--5-5-5-|

(Gtr 2 - w/same effect used throughout most CD)

|-------------------------------------------------------------
|-13-13-13-12-12-12-------------------------------------------
|-------------------9-9-9-9-9-8/9-9-9-------------------9-9-9-
|-------------------------------------10-10-10-12-12-12-------
|-------------------------------------------------------------
|-------------------------------------------------------------

-------------------------------------------------------------|
-13-13-13-12-12-12-------------------------------------------|
-------------------9-9-9-9-9-8/9-9-9-8-8-8-10-10-10-12-12-12-|
-------------------------------------------------------------|
-------------------------------------------------------------|
-------------------------------------------------------------|
                                                        (2x)

|-13-13-13-12-12----------------------
|-------------------10-10-10-10-10-10-
|----------------13-------------------
|-------------------------------------
|-------------------------------------
|-------------------------------------

-13-13-13-12-12-------------------
------------------10-10-10-8-8/10-
---------------13-----------------
----------------------------------
----------------------------------
----------------------------------

-13-13-13-12-12---------------------
-------------------10-10-10-10-8/10-
----------------13------------------
------------------------------------
------------------------------------
------------------------------------

-------------------------------------|
-10-10-10-12-12-10-13-13-13-15-15-15-|
-------------------------------------|
-------------------------------------|
-------------------------------------|
-------------------------------------|
                                 (2x)

|-------------------------------------------------------------
|-13-13-13-12-12-12-------------------------------------------
|-------------------9-9-9-9-9-8/9-9-9-------------------9-9-9-
|-------------------------------------10-10-10-12-12-12-------
|-------------------------------------------------------------
|-------------------------------------------------------------

-------------------------------------------------------------|
-13-13-13-12-12-12-------------------------------------------|
-------------------9-9-9-9-9-8/9-9-9-8-8-8-10-10-10-12-12-12-|
-------------------------------------------------------------|
-------------------------------------------------------------|
-------------------------------------------------------------|
                                                        (2x)

|-------------------------------------------------|
|-------------------------------------------------|
|-------------------------------------------------|
|-2-2-2-2-2-2-------------------------------------|
|-------------3-3-3-3-3-3-3-3-3-3-3-3-0-0-0-0-0-0-|
|-------------------------------------------------|
                                            (4x)

|-----------------------------------------------------------
|-13-13-13-12-12-12-----------------------------------------
|-------------------9b(10)r-9b(10)r-9b(10)r-9b(10)r-9b(10)r-
|-----------------------------------------------------------
|-----------------------------------------------------------
|-----------------------------------------------------------

---------------------------------|
---------------------------------|
-9b(10)r-9b(10)r-9b(10)r-9b(10)r-|
---------------------------------|
---------------------------------|
---------------------------------|
                            (4x)

(Gtr 1)
|--------------------------------------------|
|--------------------------------------------|
|--------------------------------------------|
|-7---------7--------3-----------------------|
|-7---------7--------3-----------------------|
|-5---------5--------1-----------------------|

(Gtr 2)
|--------------------------------------------|
|-13-13-13-12-12-12--------------------------|
|-------------------10-----------------------|
|--------------------------------------------|
|--------------------------------------------|
|--------------------------------------------|

  Visit MetalTabs.com for more metal tablature

bottom separator

Contact Us | Privacy Policy | Disclaimer | Legal Notice
Copyright © 2001-2014 MetalTabs.com. All Rights Reserved.