top separator

Home

Forum

What's New

Submit a Tab

FAQ

Links

Contact Us

Link to Us

MetalTabs.com logo

Bands

0-9

A

B

C

D

E

F

G

H

I

J

K

L

M

N

O

P

Q

R

S

T

U

V

W

X

Y

Z

Search

What

Where
 

Saturnus - "Empty handed" Guitar Tab

Plain Text Version
More Saturnus Tabs

Hits: 5390
Rated: 2.50 out of 5 (2 votes)
Updated: 2002-03-10 06:32:35

 

By:

Father Death

sendpm.gif

email.gif

Important note
This tab is available online because we obtained explicit permission from Saturnus or their label.


#----------------------------------PLEASE NOTE---------------------------------#
#This file is the author's own work and represents their interpretation of the #
#song. You may only use this file for private study, scholarship, or research. #
#Unless specified otherwise, this is NOT an official tab from the band members.#
#------------------------------------------------------------------------------#

  Visit MetalTabs.com for more metal tablature
  
Band:  SATURNUS
Album: Martyre
Song:  Empty Handed

Transcribed by:	Chris Humeniuk
Email:  father_death_666&hotmail.com

Tuning:	1.5 steps down

Keys:
  h  - hammer on
  _  - palm mute
/ \ - slide
  p  - pull off


Intro (Gtr 1):
|------------------------------------------------------------|
|------------------------------------------------------------|
|-------------------------------------------/9-9-9-9-9-7-7-7-|
|-0h2-2-2--2-0--0h2-2-2--2-0--0h2-2-2--2-0-------------------|
|-0h2-2-2--2-0--0h2-2-2--2-0--0h2-2-2--2-0--/7-7-7-7-7-5-5-5-|
|-----0-0--0--------0-0--0--------0-0--0---------------------|
           _             _             _

(Gtr 1)
|---------------------|      |---------------------|
|---------------------|      |---------------------|
|---------------------|      |---------------------|
|--0-h2--2--2---2--0--|      |---------------------|
|--0-h2--2--2---2--0--|      |-/7--7--7--7-7-5-5-5-|
|--------0--0---0-----|(3x)  |---------------------|
                _

(Gtr 2)
|---------------------|      |---------------------|
|-10h12-12-12--12-10--|      |-13-13-13-12--10-10--|
|---------------------|      |---------------------|
|---------------------|      |---------------------|
|---------------------|      |---------------------|
|---------------------|(3x)  |---------------------|
                                              (4x)

(Gtr 1 - clean)
|-------------------------------------------------------|
|-------------------------------------------------------|
|-9------------9----------------------------------------|
|-9------------9-------------7-------------5------------|
|-7------------7-------------7-------------5------------|
|----------------------------5-------------3------------|

(Gtr 2 - clean)
|-------------------------------------------------------|
|-------------------------------------------------------|
|----9-11--12-----9-11--12------9-11--12------9-11--12--|
|-9------------9----------------------------------------|
|---------------------------12------------10------------|
|-------------------------------------------------------|
                                                  (4x)

(Gtr 1 - dist.)
|---------------------|      |---------------------|
|---------------------|      |---------------------|
|---------------------|      |---------------------|
|--0-h2--2--2---2--0--|      |---------------------|
|--0-h2--2--2---2--0--|      |-/7--7--7--7-7-5-5-5-|
|--------0--0---0-----|(3x)  |---------------------|
                _

(Gtr 2 - dist.)
|---------------------|      |---------------------|
|-10h12-12-12--12-10--|      |-13-13-13-12--10-10--|
|---------------------|      |---------------------|
|---------------------|      |---------------------|
|---------------------|      |---------------------|
|---------------------|(3x)  |---------------------|
                                              (4x)

(Gtr 1 - clean)
|-------------------------------------------------------|
|-------------------------------------------------------|
|-9------------9----------------------------------------|
|-9------------9-------------7-------------5------------|
|-7------------7-------------7-------------5------------|
|----------------------------5-------------3------------|

(Gtr 2 - clean)
|-------------------------------------------------------|
|-------------------------------------------------------|
|----9-11--12-----9-11--12------9-11--12------9-11--12--|
|-9------------9----------------------------------------|
|---------------------------12------------10------------|
|-------------------------------------------------------|
                                                  (4x)

(Gtr 1)
|---------------------------------------------|
|---------------------------------------------|
|---------------------------------------------|
|--2------------------------------------------|
|--2------------------------------------------|
|--0------------------------------------------|

(Gtr 2)
|-12--------------------12--------------------|
|-----12----13--12--10------12----13--15--13--|
|---------------------------------------------|
|---------------------------------------------|
|---------------------------------------------|
|---------------------------------------------|

(Gtr 1)
|---------------------------------------------|
|---------------------------------------------|
|---------------------------------------------|
|-2-2-----------------------------------------|
|-2-2-----------------------------------------|
|-0-0-----------------------------------------|

(Gtr 2)
|-12--------------------12--------------------|
|-----12----13--12--10------12----13--15--13--|
|---------------------------------------------|
|---------------------------------------------|
|---------------------------------------------|
|---------------------------------------------|


(Gtr 1)
|------------------------------------------
|------------------------------------------
|--------------------2----2--2-------------
|--2----2--2---------2----2--2-------------
|--2----2--2---------0----0--0-------------
|--0----0--0-------------------------------

(Gtr 2)
|-12----12----15p12----12----12----17p12---
|----13----13-------------12----12---------
|------------------------------------------
|------------------------------------------
|------------------------------------------
|------------------------------------------

(Gtr 1)
------------------------------------------|
------------------------------------------|
--2----2--2-------------------------------|
--2----2--2------------0--0--0--3---3--3--|
--0----0--0------------0--0--0--3---3--3--|
--------------------------------1---1--1--|

(Gtr 2)
-12----12----15p12------------------------|
----13----13----------15-15-16-18--18-17\-|
------------------------------------------|
------------------------------------------|
------------------------------------------|
------------------------------------------|
                                    (4x)

(Gtr 1)
|------------------------------------------
|------------------------------------------
|--------------------2----2--2-------------
|--2----2--2---------2----2--2-------------
|--2----2--2---------0----0--0-------------
|--0----0--0-------------------------------

(Gtr 2)
|------------------------------------------
|-------------10--------------------8------
|--9-----9--------9------9-----9--------9--
|-----7-----7---------------7-----7--------
|------------------------------------------
|------------------------------------------

(Gtr 1)
-----------------------------------------|
-----------------------------------------|
--2----2--2------------------------------|
--2----2--2------------0--0--0--3---3-3--|
--0----0--0------------0--0--0--3---3-3--|
--------------------------------1---1-1--|

(Gtr 2)
-----------------------------------------|
-------------10--------------------------|
--9-----9--------9-----------------------|
-----7-----7-----------7--7--8-10--10-9\-|
-----------------------------------------|
-----------------------------------------|
                                    (4x)

(Gtr 1)
|---------------------|      |---------------------|
|---------------------|      |---------------------|
|---------------------|      |-/9--9--9--9-9-7-7-7-|
|--0-h2--2--2---2--0--|      |---------------------|
|--0-h2--2--2---2--0--|      |-/7--7--7--7-7-5-5-5-|
|--------0--0---0-----|(3x)  |---------------------|
                _

(Gtr 2)
|---------------------|      |---------------------|
|-10h12-12-12--12-10--|      |-13-13-13-12--10-10--|
|---------------------|      |---------------------|
|---------------------|      |---------------------|
|---------------------|      |---------------------|
|---------------------|(3x)  |---------------------|
                                              (4x)

(Gtr 1)
|-------------------------------|
|-------------------------------|
|-------------------------------|
|---2---------------------------|
|---2---------------------------|
|---0---------------------------|

(Gtr 2)
|-------------------------------|
|-/12---------------------------|
|-------------------------------|
|-------------------------------|
|-------------------------------|
|-------------------------------|

  Visit MetalTabs.com for more metal tablature

bottom separator

Contact Us | Privacy Policy | Disclaimer | Legal Notice
Copyright © 2001-2014 MetalTabs.com. All Rights Reserved.