top separator

Home

Forum

What's New

Submit a Tab

FAQ

Links

Contact Us

Link to Us

MetalTabs.com logo

Bands

0-9

A

B

C

D

E

F

G

H

I

J

K

L

M

N

O

P

Q

R

S

T

U

V

W

X

Y

Z

Search

What

Where
 

Saturnus - "Softly on the path you fade" Guitar Tab

Plain Text Version
More Saturnus Tabs

Hits: 5730
Rated: 4.00 out of 5 (5 votes)
Updated: 2002-03-10 06:32:14

 

By:

Father Death

sendpm.gif

email.gif

Important note
This tab is available online because we obtained explicit permission from Saturnus or their label.


#----------------------------------PLEASE NOTE---------------------------------#
#This file is the author's own work and represents their interpretation of the #
#song. You may only use this file for private study, scholarship, or research. #
#Unless specified otherwise, this is NOT an official tab from the band members.#
#------------------------------------------------------------------------------#

  Visit MetalTabs.com for more metal tablature
  
Band:  SATURNUS
Album: Martyre
Song:  Softly on the Path you Fade

Transcribed by:	Chris Humeniuk
Email:  father_death_666&hotmail.com

Tuning:	1.5 steps down

Keys:
  p  - pull off
  h  - hammer on
/ \ - slide
  ^  - bend

NOTE: There is a clean guitar playing throughout most of the song, but
	i didn't feel like figuring it out because its not needed.


Intro (clean):
|-----0----------0------------------------0---
|---------0----------0------1---0-----0-----0-
|---------------------------------------------
|---2---2------2---2--------------------------
|-0----------0------------2---2-----3---3-----
|-----------------------3---------1-----------

-----0----------0---------------------------|
---------0----------0------1---0------1---0-|
--------------------------------------------|
---2---2------2---2-------------------------|
-0----------0------------2---2------2---2---|
-----------------------3----------0---------| (4x)

**Distortion throughout rest of song**

(Gtr 1)
|-------------------------------------------------------------------------|
|-------------------------------------------------------------------------|
|-2--------2--------------------------2--------2--------------------------|
|-2--------2--------0--------3--------2--------2--------0--------5--------|
|-0--------0--------0--------3--------0--------0--------0--------5--------|
|----------------------------1-----------------------------------3--------|

(Gtr 2)
|-------------------------------------------------------------------------|
|------------------------------------------------------------------10-----|
|-------------9-----7-------10--------------------9-----7--10p9p7---------|
|-7--10----7--------------------------7--10----7-----------------7--------|
|-------------------------------------------------------------------------|
|-------------------------------------------------------------------------|

(Gtr 1)
|-------------------------------------------------------------------------|
|-------------------------------------------------------------------------|
|-2--------2--------------------------2--------2--------------------------|
|-2--------2--------0--------3--------2--------2--------0--------5--------|
|-0--------0--------0--------3--------0--------0--------0--------5--------|
|----------------------------1-----------------------------------3--------|

(Gtr 2)
|-------------------------------------------------------------------------|
|------------------------------------------------------10---9h10-12p10----|
|-------------9-----7-------10--------------------9-----------------------|
|-7--10----7--------------------------7--10----7--------------------------|
|-------------------------------------------------------------------------|
|-------------------------------------------------------------------------|


**Follow Gtr 2 timing here**
(Gtr 1)
|-------------------------------------------------
|-------------------------------------------------
|--2--------2-------------------------------------
|--2--------2--------------5-------------3--------
|--0--------0--------------5-------------3--------
|--------------------------3-------------1--------

(Gtr 2)
|--------------------12-8-------------------------
|-10-------10------9------12----12p10p9-10--------
|-------------------------------------------------
|-------------------------------------------------
|-------------------------------------------------
|-------------------------------------------------

(Gtr 1)
-------------------------------------------------
-------------------------------------------------
--2--------2-------------------------------------
--2--------2--------------5----------2-----------
--0--------0--------------5----------2-----------
--------------------------3----------0-----------

(Gtr 2)
--------------------12-8------------11--------------
-9h10-----10------9------12---10h11-----11p10-10----
----------------------------------------------------
----------------------------------------------------
----------------------------------------------------
----------------------------------------------------

(Gtr 1)
--------------------------------------------------
--------------------------------------------------
--2---------2-------------------------------------
--2---------2--------------5-------------3--------
--0---------0--------------5-------------3--------
---------------------------3-------------1--------

(Gtr 2)
---------------------12-8-------------------------
-9h10------10------9------12----12p10p9-10--------
--------------------------------------------------
--------------------------------------------------
--------------------------------------------------
--------------------------------------------------

(Gtr 1)
-------------------------------------------------|
-------------------------------------------------|
--2--------2-------------------------------------|
--2--------2--------------5----------2-----------|
--0--------0--------------5----------2-----------|
--------------------------3----------0-----------|

(Gtr 2)
--------------------12-8-10----11^--10------10\--|
-9h10-----10------9------------------------------|
-------------------------------------------------|
-------------------------------------------------|
-------------------------------------------------|
-------------------------------------------------|

**Repeat all once minus intro**


**Follow Gtr 2 timing**

(Gtr 1)
|---------------------------------------------------
|---------------------------------------------------
|-2--------2----------------------------------------
|-2--------2-------0-----------3--------------------
|-0--------0-------0-----------3--------------------
|------------------------------1--------------------

(Gtr 2)
|---------------------------------------------------
|---------------------------------------------------
|------------------7h9-7--------7h9-7---------------
|-7------------7h9----------7h9----------7h9-10-7h9-
|---------------------------------------------------
|---------------------------------------------------

(Gtr 1)
---------------------------------------------------------
---------------------------------------------------------
--2--------2---------------------------------------------
--2--------2-------------0-------------5-----------------
--0--------0-------------0-------------5-----------------
---------------------------------------3-----------------

(Gtr 2)
---------------------------------------------------------
---------------------------------------------------------
-----------7h9-7--------7h9-7--------7h9-7---------------
-7-----7h9----------7h9----------7h9----------7h9-10-7h9-
---------------------------------------------------------
---------------------------------------------------------

(Gtr 1)
---------------------------------------------------------
---------------------------------------------------------
--2--------2---------------------------------------------
--2--------2-------------0-------------3-----------------
--0--------0-------------0-------------3-----------------
---------------------------------------1-----------------

(Gtr 2)
---------------------------------------------------------
---------------------------------------------------------
-----------7h9-7--------7h9-7--------7h9-7---------------
-7-----7h9----------7h9----------7h9----------7h9-10-7h9-
---------------------------------------------------------
---------------------------------------------------------

(Gtr 1)
------------------------------------------|
------------------------------------------|
--2--------2------------------------------|
--2--------2-------------0-------5--------|
--0--------0-------------0-------5--------|
---------------------------------3--------|

(Gtr 2)
------------------------------------------|
---------------------------------9^-------|
-----------7h9-7--------7h9-7-------------|
-7-----7h9----------7h9-------------------|
------------------------------------------|
------------------------------------------|


(Gtr 1)
|-----------------------------------------------------------------------
|-----------------------------------------------------------------------
|-2--2--2--2--2--2-2--2--2--2--2--2-------------------------------------
|-2--2--2--2--2--2-2--2--2--2--2--2--5--5--5--5--5--5--3--3--3--3--3--3-
|-0--0--0--0--0--0-0--0--0--0--0--0--5--5--5--5--5--5--3--3--3--3--3--3-
|------------------------------------3--3--3--3--3--3--1--1--1--1--1--1-

(Gtr 2)
|-----------------------------------------------------------------------
|-9/10-10-10-10-10-9/10-10-10-10-10-13-13-13-11-11-10-10-10-10-10-10-10-
|-8/-9--9--9--9--9-8/-9--9--9--9--9-----------------9--9--9--9--9--9--9-
|-----------------------------------------------------------------------
|-----------------------------------------------------------------------
|-----------------------------------------------------------------------

(Gtr 1)
|-----------------------------------------------------------------------
|-----------------------------------------------------------------------
|-2--2--2--2--2--2-2--2--2--2--2--2-------------------------------------
|-2--2--2--2--2--2-2--2--2--2--2--2--5--5--5--5--5--5--2--2--2--2--2--2-
|-0--0--0--0--0--0-0--0--0--0--0--0--5--5--5--5--5--5--2--2--2--2--2--2-
|------------------------------------3--3--3--3--3--3--0--0--0--0--0--0-

(Gtr 2)
-----------------------------------------------------------------------|
-9/10-10-10-10-10-9/10-10-10-10-10-15-15-15-13-13-12-12-12-12-12-12-12-|
-8/-9--9--9--9--9-8/-9--9--9--9--9----------------11-11-11-11-11-11-11-|
-----------------------------------------------------------------------|
-----------------------------------------------------------------------|
-----------------------------------------------------------------------|
                                                                    (2x)

(Gtr 1)
|-----------------|
|-----------------|
|-----------------|
|-2---------------|
|-2---------------|
|-0---------------|

(Gtr 2)
|--------------------12-8-------------------------
|-10-------10------9------12----12p10p9-10--------
|-------------------------------------------------
|-------------------------------------------------
|-------------------------------------------------
|-------------------------------------------------

--------------------12-8------------11--------------
-9h10-----10------9------12---10h11-----11p10-10----
----------------------------------------------------
----------------------------------------------------
----------------------------------------------------
----------------------------------------------------

----------------------12-8-------------------------
-9h10-------10------9------12----12p10p9-10--------
---------------------------------------------------
---------------------------------------------------
---------------------------------------------------
---------------------------------------------------

--------------------12-8-10----11^--10-----------|
-9h10-----10------9------------------------------|
-------------------------------------------------|
-------------------------------------------------|
-------------------------------------------------|
--------------------------------------------\----|


(Gtr 1)
|-----------------------------------------------------------------------
|-----------------------------------------------------------------------
|-2--2--2--2--2--2-2--2--2--2--2--2-------------------------------------
|-2--2--2--2--2--2-2--2--2--2--2--2--5--5--5--5--5--5--3--3--3--3--3--3-
|-0--0--0--0--0--0-0--0--0--0--0--0--5--5--5--5--5--5--3--3--3--3--3--3-
|------------------------------------3--3--3--3--3--3--1--1--1--1--1--1-

(Gtr 2)
|-----------------------------------------------------------------------
|-9/10-10-10-10-10-9/10-10-10-10-10-13-13-13-11-11-10-10-10-10-10-10-10-
|-8/-9--9--9--9--9-8/-9--9--9--9--9-----------------9--9--9--9--9--9--9-
|-----------------------------------------------------------------------
|-----------------------------------------------------------------------
|-----------------------------------------------------------------------

(Gtr 1)
-----------------------------------------------------------------------|
-----------------------------------------------------------------------|
-2--2--2--2--2--2-2--2--2--2--2--2-------------------------------------|
-2--2--2--2--2--2-2--2--2--2--2--2--5--5--5--5--5--5--2--2--2--2--2--2-|
-0--0--0--0--0--0-0--0--0--0--0--0--5--5--5--5--5--5--2--2--2--2--2--2-|
------------------------------------3--3--3--3--3--3--0--0--0--0--0--0-|

(Gtr 2)
-----------------------------------------------------------------------|
-9/10-10-10-10-10-9/10-10-10-10-10-15-15-15-13-13-12-12-12-12-12-12-12-|
-8/-9--9--9--9--9-8/-9--9--9--9--9----------------11-11-11-11-11-11-11-|
-----------------------------------------------------------------------|
-----------------------------------------------------------------------|
-----------------------------------------------------------------------|
                                                                    (2x)

(Gtr 1)
|---------------------------|
|---------------------------|
|---------------------------|
|-2-------------------------|
|-2-------------------------|
|-0-------------------------|

(Gtr 2)
|---------------------------|
|-10------------------------|
|---------------------------|
|---------------------------|
|---------------------------|
|---------------------------|

  Visit MetalTabs.com for more metal tablature

bottom separator

Contact Us | Privacy Policy | Disclaimer | Legal Notice
Copyright © 2001-2014 MetalTabs.com. All Rights Reserved.