top separator

Home

Forum

What's New

Submit a Tab

FAQ

Links

Contact Us

Link to Us

MuSpy.com

MetalTabs.com logo

Bands

0-9

A

B

C

D

E

F

G

H

I

J

K

L

M

N

O

P

Q

R

S

T

U

V

W

X

Y

Z

Search

What

Where
 

Empyrium - "Under Dreamskies" Guitar Tab

Plain Text Version
More Empyrium Tabs

Hits: 5380
Rated: 4.67 out of 5 (3 votes)
Updated: 2002-03-10 06:29:30

 

Important note
We did our best to reach Empyrium and ask for their permission to publish this tab. Unfortunately they did not respond to our requests or we could not find a way to contact them. This tab is available online until Empyrium tells us to take it down.


#----------------------------------PLEASE NOTE---------------------------------#
#This file is the author's own work and represents their interpretation of the #
#song. You may only use this file for private study, scholarship, or research. #
#Unless specified otherwise, this is NOT an official tab from the band members.#
#------------------------------------------------------------------------------#

  Visit MetalTabs.com for more metal tablature
  
                           EMPYRIUM TABS
                        Under Dreamskies Tab

song:      Under Dreamskies
album:     A Wintersunset...
artist:    Empyrium
country:   Germany
home page: www.empyrium.de


tab by:    Pablo David Pacheco Soto (Mouse)
country:   Mexico
city:      Vicente Guerrero, Durango
e-mail:    source_of_pain2000@yahoo.com.mx


Intro

 Gtr1 (w/distortion)
|-------------------------------------------------------------------------|
|-----------------------------------------------/12-----------------------|
|--12---11-------12--11-11--12-11-------12---12---------12\--7-7--9-9-----|
|------------9----------------------9----------------9------------------9-|
|-------------------------------------------------------------------------|
|-------------------------------------------------------------------------|
|                                                                         |
|Gtr2 (clean)  (I'm not sure)                                             |
|----7--------|----|-------------|---|----7--------|----|-------------|---|
|-------------|----|-------------|---|-------------|----|-------------|---|
|----9-----6--|--%-|----5-----2--|-%-|----9-----6--|--%-|----5-----5--|-%-|
|---9-9---9-9-|----|---5-5---5-5-|---|---9-9---9-9-|----|---5-5---5-5-|---|
|-7-----7-----|----|-3-----3-----|---|-7-----7-----|----|-3-----3-----|---|
|-------------|----|-------------|---|-------------|----|-------------|---|

                                                                     _________________________
 Gtr1                                                               |          1              |
|-------------------------------------------------------------------|-------------------------|
|-------------------------------------------------------------------|-------------------------|
|o-12-12-11---12-12-11---12-12-11---12-11-9---12-12-11---12-12-11---|-12-12-11-----------9-9-o|
|o----------9----------9----------9---------9----------9----------9-|-----------9-12-12------o|
|-------------------------------------------------------------------|-------------------------|
|-------------------------------------------------------------------|-------------------------|
|                                                                   |                         |
|Gtr2 (w/distrortion)                                               |                         |
|-------------------------------------------------------------------|-------------------------|
|-------------------------------------------------------------------|-------------------------|
|o-9----------------------------------------5-----------------------|-------------5-----5----o|
|o-9----------------------------------------5-----------------------|-------------5-----5----o|
|--7---------------------------------7--7---3-----------------------|-------------3-----3-----|
|-------------------------------------------------------------------|-------------------------|
P.m.                                 ....
 ________________________
|          2             |
|------------------------|
|------------------------|
|-12/16~---16~---16~--\--|
|------------------------|
|------------------------|
|------------------------|
|                        |
|                        |
|------------------------|
|------------------------|
|-(5)--------------------|
|-(5)--------------------|
|-(3)--------------------|
|------------------------|


Verse:

|------------------------------------------------|
|------------------------------------------------|
|o-11------------11-11-12-12--------14-14-------o|
|o----------------------------------------------o|
|------------------------------------------------|
|------------------------------------------------|
|                                                |
|                                                |
|------------------------------------------------|
|------------------------------------------------|
|o--9-------------------5------------5--5-------o|
|o--9-------------------5------------5--5-------o|
|---7-------------7--7--3------------3--3--------|
|------------------------------------------------|


|----------------------------|
|----------------------------|
|o--9--9--9--9--5--5--5--5--o|
|o--9--9--9--9--5--5--5--5--o|
|---7--7--7--7--3--3--3--3---|
|----------------------------|
                       End of verse


Melodic part
|-------------------------------------------------------------------------------|
|-------------------------------------------------------------------------------|
|----9--11-12-12-11-9----9--11-12-12-11-9----9--11-12-12-11-11--11-11/12-11-9---|
|--9-------------------9-------------------9------------------------------------|
|-------------------------------------------------------------------------------|
|-------------------------------------------------------------------------------|

|---------------------------------------------------------------------------------|
|---------------------------------------------------------------------------------|
|----9--11-12-12-11-9----9--11-12-12-11-9----9--11-12-12-11-11--11-12/14-12-11-11-|
|--9-------------------9-------------------9--------------------------------------|
|---------------------------------------------------------------------------------|
|---------------------------------------------------------------------------------|

|----------------------------------------------------------------------------------------|
|----------------------------------------------------------------------------------------|
|o-11-12-11-12-12-11-11--11-12-11-12-12-11-11--11-12-11-12-12-11-11--11-12/14-12-11-11--o|
|o--------------------------------------------------------------------------------------o|
|----------------------------------------------------------------------------------------|
|----------------------------------------------------------------------------------------|

Repeat the verse and the melodic part again

Interlude:
|--8--------------8-------------8---------------------8-----|
|---12-10-8-10-12---12-10-12------12-10-8-10-12-10-12---12--|
|o---------------------------------------------------------o|
|o---------------------------------------------------------o|
|-----------------------------------------------------------|
|-----------------------------------------------------------|


Enter the gutural voice
                     ______________________________________________
Verse 2             |         1           |           2            |
|-------------------|---------------------|------------------------|
|-------------------|---------------------|------------------------|
|o--5--4-2-0--0-2-4-|--5--4-2-4--4-4/7~--o|---2--4-5-4--4-5-4h5-4~-|
|o------------------|--------------------o|------------------------|
|-------------------|---------------------|------------------------|
|-------------------|---------------------|------------------------|


                                  Repeat x times
|-----------------------------------------------|---|
|-----------------------------------------------|---|
|o---------------------------------------------o|---|
|o-7-----7-7--2-----2-2--2-----2-2--5-----5-5--o|-7-|
|--7-----7-7--2-----2-2--2-----2-2--5-----5-5---|-7-|
|--5--5--5-5--0--0--0-0--0--0--0-0--3--3--3-3---|-5-|
PM    .          .          .          .


-Here's a rest part, olny vocals and keyboards-


|------------------------------------------------|
|------------------------------------------------|
|o-9-----9-9-9--5-----5-5-5--4-----4-4-4---5--7-o|
|o-9-----9-9-9--5-----5-5-5--4-----4-4-4---5--7-o|
|--7--7--7-7-7--3--3--3-3-3--2--2--2-2-2---3--5--|
|------------------------------------------------|
Pm.   .            .            .
"Our Fantasy Begins..."


Enter vocals
|------------------------------------------------|
|------------------------------------------------|
|o-9------------5------------4-------------5--7-o|
|o-9------------5------------4-------------5--7-o|
|--7------------3------------2-------------3--5--|
|------------------------------------------------|


                                          Repeat 2 times
|------------------------------------------------|
|------------------------------------------------|
|o-9-----9-9-9--5-----5-5-5--4-----4-4-4---5--7-o|
|o-9-----9-9-9--5-----5-5-5--4-----4-4-4---5--7-o|
|--7--7--7-7-7--3--3--3-3-3--2--2--2-2-2---3--5--|
|------------------------------------------------|
Pm.   .            .            .

                                                Repeat 2 times
|------------------------------------------------------|
|------------------------------------------------------|
|o-9-----9-9-9--5-----5-5-5--4-----4-4-4---5-----7----o|
|o-9-----9-9-9--5-----5-5-5--4-----4-4-4---5-----7----o|
|--7-777-7-7-7--3-333-3-3-3--2-222-2-2-2---3-333-5-555-|
|------------------------------------------------------|
Pm.  ...          ...          ...           ...   ...


                                          Repeat 2 times
|------------------------------------------------|
|------------------------------------------------|
|o-9------------5------------4-------------5--7-o|
|o-9------------5------------4-------------5--7-o|
|--7------------3------------2-------------3--5--|
|------------------------------------------------|
|                                                |
|------------------------------------------------|
|------------------------------------------------|
|o----------------------------------------------o|
|o-7--7-7---7-9-7--7-7-----7-9--9-9-----9-10--9-o|
|------------------------------------------------|
|------------------------------------------------|


                                      Repeat 4 times
|--------------------------------------------|
|--------------------------------------------|
|o------------------------------------------o|
|o------------------------------------------o|
|--77777777----33333333-22222222--3333-5555--|
|--------------------------------------------|
|PM........    ........ ........  .... ....  |
|                                            |
|--------------------------------------------|
|--------------------------------------------|
|o------------------------------------------o|
|o-7--10-9-10--12-10-9---10--9-9--7--9-10-9-o|
|--------------------------------------------|
|--------------------------------------------|


-Repeat the Verse 2-



|--------------------------------|
|--------------------------------|
|o-9--------------5--------7-7--o|
|o-9--------------5--------7-7--o|
|--7--------------3--------5-5---|   Repeat
|--------------------------------|    This
                                      two
|--------------------------------|    bars
|--------------------------------|   again
|o------------------------------o|
|o------------------------------o|
|--5~---------/7\-3--------5-5---|
|--------------------------------|


|--------------------------------|
|--------------------------------|
|o-9----9----9----5--------7-7--o|
|o-9----9----9----5--------7-7--o|
|--7--7-7--7-7----3-3------5-5---|   Repeat
|--------------------------------|    This
PM    .    .        .                  two
                                      bars
|---------------------------------|   again
|---------------------------------|
|o-----------------------------*-o|
|o-7----7----7-----5--------7-7\-o|
|--5--5-5--5-5-/7\-3-3------5-5---|
|---------------------------------|
PM    .    .         .         * (The slide is only in the last time)

|----|
|----|
|-7--|
|-7--|
|-5--|
|----|


-Other rest part-


-And then, the final part-


Add the Fill 1 at the second time
|-------------------------------------------------------|
|--13--12-10-8--10-12--12-13--13-12-10-12--12-12/15~----|
|o-----------------------------------------------------o|
|o-----------------------------------------------------o|
|-------------------------------------------------------|
|-------------------------------------------------------|

      Fill 1
     |----------10-12-13--12-12--13-12-10-12-10-8-10-8-7---8-7-8-10--|
     |---------------------------------------------------------------|
     |---------------------------------------------------------------|
     |---------------------------------------------------------------|
     |---------------------------------------------------------------|
     |---------------------------------------------------------------|

|------10-12-13--12-12--13-12-10-12-10-8-10-8-7---8-7-8-10--|
|--13-------------------------------------------------------|
|-----------------------------------------------------------|
|-----------------------------------------------------------|
|-----------------------------------------------------------|
|-----------------------------------------------------------|

|----|
|-13-|
|----|
|----|
|----|
|----|

  Visit MetalTabs.com for more metal tablature

bottom separator

Contact Us | Privacy Policy | Disclaimer | Legal Notice
Copyright © 2001-2014 MetalTabs.com. All Rights Reserved.