top separator

Home

Forum

What's New

Submit a Tab

FAQ

Links

Contact Us

Link to Us

MetalTabs.com logo

Bands

0-9

A

B

C

D

E

F

G

H

I

J

K

L

M

N

O

P

Q

R

S

T

U

V

W

X

Y

Z

Search

What

Where
 

My Dying Bride - "Cry of Mankind" Guitar Tab

Plain Text Version
More My Dying Bride Tabs

Hits: 16754
Rated: 4.45 out of 5 (20 votes)
Updated: 2002-03-10 05:50:05

 

Important note
This tab is available online because we obtained explicit permission from My Dying Bride or their label.


#----------------------------------PLEASE NOTE---------------------------------#
#This file is the author's own work and represents their interpretation of the #
#song. You may only use this file for private study, scholarship, or research. #
#Unless specified otherwise, this is NOT an official tab from the band members.#
#------------------------------------------------------------------------------#

  Visit MetalTabs.com for more metal tablature
  
My Dying Bride - The Cry of Mankind

From the album 'The Angel and the Dark River'

Transcription by Matt Deans
longjocks@yahoo.com

This tab was written before I decided to take up a less "rigid" form
of writing that made my tabs a little difficult to read properly. This
song is straight forward though and the tab is thusly fairly easy to
read so I decided not to go throught pain of a re-write.

When I did this tab I was watching the video clip. Some of the fingerings
and note positions I wouldn't normally play myself, but I decided to
keep the tab true to how MDB play. Enjoy...


6-String Arrangement, Low to High - C#,F#,B,E,G#,C#

Intro

|Guitar 1 w/distortion & reverb
|T P   H     T P   H     T P   H     T P   H
|Riff A                                End Riff A
|7-/-0-\-3---------------7-/-0-\-3---------------|
|------------7-/-0-\-3---------------7-/-0-\-3---|
|------------------------------------------------|
|------------------------------------------------|
|------------------------------------------------|
|------------------------------------------------|


|Guitar 1 - Riff A


|Guitar 1 - Riff A (plays throughout entire song)
|
|Guitar 2 w/distortion
|
|                           * Feed back                . w/delay
|--------|--------|--------|--------|--------|--------|--------|--------|
|--------|--------|--------|--------|--------|--------|--------|--------|
|--------|--------|--------|--------|--------|--------|--------|--------|
|--------|--------|--------|--------|--------|--------|--------|--------|
|2-------|(2)-----|(2)-----|(2)-----|(2)-----|(2)-----|2-------|--------|
|0-------|(0)-----|(0)-----|(0)-----|(0)-----|(0)-----|0-------|--------|


|Guitar 2
|
|                           * Feed back
|--------|--------|--------|--------|--------|--------|--------|--------|
|--------|--------|--------|--------|--------|--------|--------|--------|
|--------|--------|--------|--------|--------|--------|--------|--------|
|--------|--------|--------|--------|--------|--------|--------|--------|
|2-------|(2)-----|(2)-----|(2)-----|(2)-----|(2)-----|(2)-----|--------|
|0-------|(0)-----|(0)-----|(0)-----|(0)-----|(0)-----|(0)-----|--------|


|Guitar 2
|                             s
|Riff B                                                 End Riff B
|--------------------------------|--------------------------------|
|--------------------------------|--------------------------------|
|--------------------------------|--------------------------------|
|--------------------------------|--------------------------------|
|2-----------------------2----/7-|3---------------2---------------|
|0-------------------------------|--------------------------------|


|Guitar 2 - Riff B


|Guitar 2
|                  H  P
|Riff C
|------------------------------------|------------------------------------|
|------------------------------------|------------------------------------|
|------------------------------------|------------------------------------|
|---9--5--10~----10/12\10-9~---------|---9--5--10~-----9------------------|
|7-----------------------------------|7-------------------9~----10~-------|
|------------------------------------|------------------------------------|


|Guitar 2
|                  H  P                                                PM
|                                                               End Riff C
|------------------------------------|------------------------------------|
|------------------------------------|------------------------------------|
|------------------------------------|------------------------------------|
|---9--5--10~----10/12\10-9~---------|---9--5--10~-----9------------------|
|7-----------------------------------|7-------------------9~----10~-------|
|------------------------------------|----------------------------------0-|


|Guitar 2
|                                PM                                    PM
|Riff D
|------------------------------------|------------------------------------|
|------------------------------------|------------------------------------|
|------------------------------------|------------------------------------|
|-----------9--------5---------------|-----------9--------12--------------|
|2--------7--------3-----------------|2--------7--------10----------------|
|0------------------------------*(0)-|0---------------------------------0-|

* Note played on 3rd, 4th & 5th repeat only

|Guitar 2
|                                                                      PM
|                                                               End Riff D
|------------------------------------|------------------------------------|
|------------------------------------|------------------------------------|
|------------------------------------|------------------------------------|
|-----------9--------5---------------|---------4~-------2~----------------|
|2--------7--------3---------------3-|2-----------------------------------|
|0-----------------------------------|-------------------------------*(0)-|

* Note played 1st time & 4th repeat only

|Guitar 2 - Riff D

|Guitar 2
|
|Riff E
|--------------------------------|--------------------------------|
|--------------------------------|--------------------------------|
|--------------------------------|--------------------------------|
|--------------------------------|--------5-------4-------------2-|
|2-----------------------2----/7-|3-------------------------------|
|0-------------------------------|--------------------------------|


|Guitar 2
|                                                s
|
|--------------------------------|--------------------------------|
|--------------------------------|--------------------------------|
|--------------------------------|--------------------------------|
|2-------------------------------|--------5------/7-------------9-|
|------------------------2----/7-|3-------------------------------|
|--------------------------------|--------------------------------|


|Guitar 2
|
|
|--------------------------------|--------------------------------|
|--------------------------------|--------------------------------|
|--------------------------------|--------------------------------|
|9-------------------------------|--------5-------4-------------2-|
|------------------------2----/7-|3-------------------------------|
|--------------------------------|--------------------------------|


|Guitar 2
|                                                s
|                                                       End Riff E
|--------------------------------|--------------------------------|
|--------------------------------|--------------------------------|
|--------------------------------|--------------------------------|
|2-------------------------------|--------5------/7---------------|
|------------------------2----/7-|3-------------------------------|
|--------------------------------|---------------------------*(0)-|

* Note played on 1st repeat only

|Guitar 2
|                                                              H
|
|--------------------------------|--------------------------------|
|--------------------------------|--------------------------------|
|--------------------------------|--------------------------------|
|2-------9-------5-------4-----2-|2-------10------5-------7-5-4/5-|
|--------------------------------|--------------------------------|
|--------------------------------|--------------------------------|


|Guitar 2
|                                                s
|
|--------------------------------|--------------------------------|
|--------------------------------|--------------------------------|
|--------------------------------|--------------------------------|
|2-------9-------5-------4-----2-|2-------10-----/12--------------|
|--------------------------------|------------------------------7-|
|--------------------------------|--------------------------------|


|Guitar 2
|
|
|--------------------------------|--------------------------------|
|--------------------------------|--------------------------------|
|-----------------9--11-12-11-12-|12------14-12-11-12-14-12-11-12-|
|--------------------------------|--------------------------------|
|7----------------7--9--10-9--10-|10------12-10-9--10-12-10-9--10-|
|--------------------------------|--------------------------------|


|Guitar 2
|
|
|--------------------------------|--------------------------------|
|--------------------------------|--------------------------------|
|9----------------9--11-12-11-9--|9-------11-9--7--9--11-9--7--9--|
|--------------------------------|--------------------------------|
|7----------------7--9--10-9--7--|7-------9--7--5--7--9--7--5--7--|
|--------------------------------|--------------------------------|


|Guitar 2 - Riff C

|Guitar 2 - Riff D x2

|Guitar 2 - Riff B x2

|Guitar 2 - Riff E

|Guitar 2 - Riff D x2 (Hold last note until feedback then fade)



Legend

  H		  P		  s		  B		  R
|----| Hammer	|----| Pull	|----| Slide	|----| Bend	|----| Release
|----| On	|----| Off	|----|		|----|		|----| Bend
|5/7-|		|7\5-|		|----|		|7/9-|		|9\7-|
|----|		|----|		|5/7-|		|----|		|----|
|----|		|----|		|----|		|----|		|----|
|----|		|----|		|----|		|----|		|----|


 PM				 ah		 nh		 .
|----| Palm	|----| Percuss-	|----| Pinch	|----| Harmonic	|----| Staccato
|----| Mute	|----| ive	|----| Harmonic	|----|		|----|
|----|		|----| Strum	|----|		|----|		|----|
|----|		|----|		|----|		|12--|		|5---|
|----|		|----|		|3---|		|----|		|----|
|0---|		|X---|		|----|		|----|		|----|



|----| Vibrato	|----| Pick	|----| Beat
|----|		|----| Slide	|----|
|9~--|		|----|		|----|
|----|		|----|		|----|
|----|		|X\--|		|----|
|----|		|----|		|----|
				 1 2

  Visit MetalTabs.com for more metal tablature

bottom separator

Contact Us | Privacy Policy | Disclaimer | Legal Notice
Copyright © 2001-2014 MetalTabs.com. All Rights Reserved.