top separator

Home

Forum

What's New

Submit a Tab

FAQ

Links

Contact Us

Link to Us

MuSpy.com

MetalTabs.com logo

Bands

0-9

A

B

C

D

E

F

G

H

I

J

K

L

M

N

O

P

Q

R

S

T

U

V

W

X

Y

Z

Search

What

Where
 

Bolt Thrower - "Laid to waste" Guitar Tab

Plain Text Version
More Bolt Thrower Tabs

Hits: 4782
Rated: 3.67 out of 5 (3 votes)
Updated: 2002-03-10 05:08:50

 

Important note
This tab is available online because we obtained explicit permission from Bolt Thrower or their label.


#----------------------------------PLEASE NOTE---------------------------------#
#This file is the author's own work and represents their interpretation of the #
#song. You may only use this file for private study, scholarship, or research. #
#Unless specified otherwise, this is NOT an official tab from the band members.#
#------------------------------------------------------------------------------#

  Visit MetalTabs.com for more metal tablature
  
                              laid to waste
                    by bolt thrower off of mercenary
drop d tuning-not too herd listen to song to get it perfect
questions or comments-jt83@msn.com


    intro riff
E-----------------------------------------------------------------------
B-----------------------------------------------------------------------
G-----------------------------------------------------------------------
D---0-2--2--0--2--3--0--2--8--0--6--8-----------------------------------
A---0-2--2--0--2--3--0--2--8--0--6--8-----------------------------------
D---0h2--2--0--2--3--0--2--8--0--6--8-----------------------------------


                palm mute
E-----------------------------------------------------------------------
B-----------------------------------------------------------------------
G-----------------------------------------------------------------------
D-----------------------------------------------------------------------
A-----------------------------------------------------------------------
D---------------0--2--2--2--2--2--2--0--2--2--2--2--2--0--2--2--2--2----



E------------------------------|----------------------------------------
B------------------------------|----------------------------------------
G------------------------------|----------------------------------------
D------------------------------|----------------------------------------
A------------------------------|----------------------------------------
D---2--8--8--0--0--6--6--8--8--|----------------------------------------


    verse
E---------------------------------------|-------------------------------
B---------------------------------------|-------------------------------
G---------------------------------------|-------------------------------
D---10--10--10--8--7--5--4--------------|-------------------------------
A---------------------------6--5--3--5--|-------------------------------
D---------------------------------------|-------------------------------


    chorus-listen to song for exact picking
E-----------------------------------------------------------------------
B-----------------------------------------------------------------------
G-----------------------------------------------------------------------
D-----------------------------------------------------------------------
A-----------------------------------------------------------------------
D---3--3--3--3--3--1--1--1--4--1--4--0--1--3--0--1--4--0--1--3--0--1----



E------|----------------------------------------------------------------
B------|----------------------------------------------------------------
G------|----------------------------------------------------------------
D------|----------------------------------------------------------------
A------|----------------------------------------------------------------
D---4--|----------------------------------------------------------------


    fill
E-----------------------------------------------------------------------
B-----------------------------------------------------------------------
G-----------------------------------------------------------------------
D---0--------------0--------------------0--------------0----------------
A---0--8--8--6--5--0--6--6--6--5--3--3--0--8--8--6--5--0--3--3--3--5----
D---0--------------0--------------------0--------------0----------------



E---------|-------------------------------------------------------------
B---------|-------------------------------------------------------------
G---------|-------------------------------------------------------------
D---------|-------------------------------------------------------------
A---3--6--|-------------------------------------------------------------
D---------|-------------------------------------------------------------


    fill #2- gtr. #1
E-----------------------------------------------------------------------
B-----------------------------------------------------------------------
G-----------------------------------------------------------------------
D-----------------------------------------------------------------------
A-----------------------------------------------------------------------
D---0--0--0--0--0--0--0--0--2--2--3--3--3--3--3--3--5--5--6--6--6--6----


                    fill #2- gtr. #2
E------------|-----------------------------------|----------------------
B------------|-----------------------------------|----------------------
G------------|--------------------7--8--7--8~~~--|----------------------
D------------|-----7--6--7--6--7-----------------|----------------------
A------------|-----------------------------------|----------------------
D---6--6--6--|-----------------------------------|----------------------


    real cool part
E------------------------------------------------------------------|----
B------------------------------------------------------------------|----
G------------------------------------------------------------------|----
D---0--0--------------------------0--0-----------------------------|----
A---0--0--------------------------0--0-----------------------5--3--|----
D---0--0--1--0--2--0--3--0--0--3--0--0--1--0--2--0--3--0--0--------|----



E-----------------------------------------------------------------------
B-----------------------------------------------------------------------
G-----------------------------------------------------------------------
D---0--0--1--0--2--0--3--0--0--3--0--0--1--0--2--0--3--0--0-------------
A---0--0--1--0--2--0--3--0--0--3--0--0--1--0--2--0--3--0--0--5--3-------
D---0--0--1--0--2--0--3--0--0--3--0--0--1--0--2--0--3--0--0-------------

  Visit MetalTabs.com for more metal tablature

bottom separator

Contact Us | Privacy Policy | Disclaimer | Legal Notice
Copyright © 2001-2014 MetalTabs.com. All Rights Reserved.