top separator

Home

Forum

What's New

Submit a Tab

FAQ

Links

Contact Us

Link to Us

MetalTabs.com logo

Bands

0-9

A

B

C

D

E

F

G

H

I

J

K

L

M

N

O

P

Q

R

S

T

U

V

W

X

Y

Z

Search

What

Where
 

Catastrophic - "Hate trade" Guitar Tab

Plain Text Version
More Catastrophic Tabs

Hits: 4834
Rated: 4.00 out of 5 (2 votes)
Updated: 2003-03-30 11:19:43

 

By:

INVERTED

sendpm.gif

email.gif

Important note
This tab is available online because we obtained explicit permission from Catastrophic or their label.


#----------------------------------PLEASE NOTE---------------------------------#
#This file is the author's own work and represents their interpretation of the #
#song. You may only use this file for private study, scholarship, or research. #
#Unless specified otherwise, this is NOT an official tab from the band members.#
#------------------------------------------------------------------------------#

  Visit MetalTabs.com for more metal tablature
  
                               CATASTROPHIC - HATE TRADE
                             From the Album - THE CLEANSING
                              Copyright: METAL BLADE 2000
                                Version 1.0 - Feb,7 2002
                                  Revised Jan 20, 2003


Transcribed By: James Williams (Inverted)

For Questions, Comments, Newest Version, or Corrections contact
Inverted: at Inverted_one@hotmail.com

Check Out Death8699.com, With More Transcriptions On It:
http://www.death8699.com

.  - palm mute           /  - slide up to
\  - slide down to       ~  - vibrato
h  - hammer on           b  - Bend
p  - pull off            Suffixes for bend
t  - tap                 f  - full bend    h - half bend
ph - pinched harmonic    q  - quarter bend t - tap bend
*  - see comment         ^  - Hold bend    r release bend
x  - Stuccatto           ~  - vibrato bend
,  - slight palm mute    () - ghost note, sustained note
"  - tremolo note        <> - Trill

Tuning; D"G"C"F"A"D"


Riff 1-A                                     Gtr I
|--------------------------------------------------|
|--------------------------------------------------|
|--------------------------------------------------|
|--------2-----2-----------------2-----2-----------|
|-----2-----------------2-----2--------------2-----|
|--0--------3-----3--0-----0--------3-----3-----3--|
|                                                  |
|                                            Gtr II|
|--------------------------------------------------|
|--------------------------------------------------|
|--------------------------------------------------|
|--------------------------------------------4-----|
|--2-----------------------------------------2--5--|
|--0--------------------------------------------3--|


Riff 1-B                                      Gtr I
|--------------------------------------------------|
|--------------------------------------------------|
|--------------------------------------------------|
|--------2-----2-----------------2-----2-----------|
|-----2-----------------2-----2--------------2--2--|
|--0--------3-----3--0-----0--------3-----3--0--0--|
|                                            .  .  |
|                                            Gtr II|
|--------------------------------------------------|
|--------------------------------------------------|
|--------------------------------------------------|
|--------------------------------------------------|
|--2-----------------------------------------2--2--|
|--0-----------------------------------------0--0--|
                                             .  .

Riff 2
|----------------------------------|
|----------------------------------|
|----------------------------------|
|----------------------------------|
|--2--------5\6-6------3\4-4-------|
|--0----0-0-3\4-4--0-0-1\2-2--0-0--|
        . .        . .        . .

Riff 3
|----------------------------------|
|----------------------------------|
|----------------------------------|
|----------------------------------|
|--2--------3--------5--------5-3--|
|--0----0-0-1----0-0-3----0-0-3-1--|
        . .      . .      . .

Riff 4
|----------------------------------|
|----------------------------------|
|----------------------------------|
|-----------5----------------------|
|--2--------3--------5--------5-3--|
|--0----0-0-3----0-0-3----0-0-3-1--|
        . .      . .      . .


Check out my other tabs by: Deicide, Obituary, Hypocrisy,
Grave, Catastrophic, Six Feet Under, Incantation, Death,
Cannibal Corpse, Broken Hope, Cancer, Dark Tranquillity,
Malevolent Creation, Lowbrow and Unleashed.

  Visit MetalTabs.com for more metal tablature

bottom separator

Contact Us | Privacy Policy | Disclaimer | Legal Notice
Copyright © 2001-2014 MetalTabs.com. All Rights Reserved.