top separator

Home

Forum

What's New

Submit a Tab

FAQ

Links

Contact Us

Link to Us

MetalTabs.com logo

Bands

0-9

A

B

C

D

E

F

G

H

I

J

K

L

M

N

O

P

Q

R

S

T

U

V

W

X

Y

Z

Search

What

Where
 

Saturnus - "A poem (written in moonlight)" Guitar Tab

Plain Text Version
More Saturnus Tabs

Hits: 6350
Rated: 5.00 out of 5 (1 vote)
Updated: 2002-02-26 14:16:09

 

By:

Father Death

sendpm.gif

email.gif

Important note
This tab is available online because we obtained explicit permission from Saturnus or their label.


#----------------------------------PLEASE NOTE---------------------------------#
#This file is the author's own work and represents their interpretation of the #
#song. You may only use this file for private study, scholarship, or research. #
#Unless specified otherwise, this is NOT an official tab from the band members.#
#------------------------------------------------------------------------------#

  Visit MetalTabs.com for more metal tablature
  
Band:  SATURNUS
Album: Martyre
Song:  A Poem (written in moonlight)

Transcribed by:	Chris Humeniuk
Email:  father_death_666&hotmail.com

Tuning:	1.5 steps down

Keys:
/ \ - slide
<#> - A.H.
  ^  - bend
  h  - hammer on
  p  - pull off


Intro (dist.):
(Gtr 1)
|---------------------------------------------------------|
|---------------------------------------------------------|
|--------4--2--5-----5----<5>-------------------9-9/10-9\-|
|---2--------------------------2--------------------------|
|---2-------------5-----5------2----2--0--3--5--7-7-/8-7\-|
|-\-0--------------------------0--------------------------|

(Gtr 2)
|---------------------------------------------------------|
|--------------------------------------------3--5-5-/6-5--|
|--------4--2--5-----5----<5>-------4--2--5---------------|
|---2--------------------------2--------------------------|
|---2-------------5-----5------2--------------------------|
|-\-0--------------------------0--------------------------| (4x)


Verse (clean):
(Gtr 3)
|-0-0-0-0-3-------------3---5\--0-0-0-0-3-----------5--3--|
|------------3h4-3----3---5----------------3h4-3----3--3--|
|---------------------------------------------------------|
|---------------------------------------------------------|
|---------------------------------------------------------|
|---------------------------------------------------------| (4x)

(Gtr 1)
|---------------------------------------------------------|
|---------8-------------8---10\---------8-----------------|
|-9-9-9-9----7/8-7----7---9-----9-9-9-9----7/8-7-------7--|
|-7-7-7-7----8/9-8--------------7-7-7-7----8/9-8----9--8--|
|---------------------------------------------------------|
|---------------------------------------------------------| (2x)

(Gtr 2)
|-0-0-0-0-------------------------------------------------|
|-5-5-5-5-8-------------8---10\---------8-----------------|
|-7-7-7-7----7/8-7----7---9-----9-9-9-9----7/8-7---10--8\-|
|------------8/9-8--------------7-7-7-7----8/9-8----------|
|---------------------------------------------------------|
|---------------------------------------------------------| (2x)

(Gtr 1)
|-----------------------------------------------------------|
|---------8-------------------------------8-----------------|
|-9-9-9-9----7/8-7---7h8-9-7h8-9--9-9-9-9----7/8-7-------7--|
|-7-7-7-7----8/9-8----------------7-7-7-7----8/9-8----9--8--|
|-----------------------------------------------------------|
|-----------------------------------------------------------|

(Gtr 2)
|-0-0-0-0---------------------------------------------------|
|-5-5-5-5-8-------------8---10\-----------8-----------8---8-|
|-7-7-7-7----7/8-7----7---9-------9-9-9-9----7/8-7--7---7---|
|------------8/9-8----------------7-7-7-7----8/9-8----------|
|-----------------------------------------------------------|
|-----------------------------------------------------------|

(Gtr 1)
|-----------------------------------------------------------|
|---------8-------------------------------8-----------------|
|-9-9-9-9----7/8-7---7h8-9-7h8-9--9-9-9-9----7/8-7-------7--|
|-7-7-7-7----8/9-8----------------7-7-7-7----8/9-8----9--8--|
|-----------------------------------------------------------|
|-----------------------------------------------------------|

(Gtr 2)
|-0-0-0-0---------------------------------------------------|
|-5-5-5-5-8-------------8---10\-----------8-----------------|
|-7-7-7-7----7/8-7----7---9-------9-9-9-9----7/8-7----------|
|------------8/9-8----------------7-7-7-7----8/9-8----------|
|-----------------------------------------------------------|
|-----------------------------------------------------------|


Chorus:
(Gtr 1)
|---------------------------------------------------------|
|---------------------------------------------------------|
|--------4--2--5-----5----<5>-------------------9-9/10-9\-|
|---2--------------------------2--------------------------|
|---2-------------5-----5------2----2--0--3--5--7-7-/8-7\-|
|-\-0--------------------------0--------------------------|

(Gtr 2)
|---------------------------------------------------------|
|--------------------------------------------3--5-5-/6-5--|
|--------4--2--5-----5----<5>-------4--2--5---------------|
|---2--------------------------2--------------------------|
|---2-------------5-----5------2--------------------------|
|-\-0--------------------------0--------------------------| (4x)


Interlude:
(Gtr 1 - clean)
|-----------------------------------------------------|
|-----------------------------------------------------|
|-------0-----------0-------------0-------------------|
|-----2----2----7------7--------2----2----7-----------|
|---2---------5---5------5----2---------5---5-3----2--|
|-0-------------------------0--------------------3----| (2x)

(Gtr 1)
|----------------------------------------
|----------------------------------------
|----------0------------------0----------
|-------2-------2-------7----------7-----
|----2---------------5-----5----------5--
|-0--------------------------------------

(Gtr 2 - clean)
|-----------------------------------------
|-----------------------------------------
|----------------------------------7------
|-----------------7h9-7------7h9-10-7h9-7-
|-----------------------------------------
|-----------------------------------------

(Gtr 1)
----------------------------------------|
----------------------------------------|
----------0-----------------------------|
-------2-------2-------7----------------|
----2---------------5-----5--3-------2--|
-0--------------------------------3-----| (4x)

(Gtr 2)
----------------------------------------|
----------------------------------------|
----------------------------------------|
-----------------7h9-7--\-5h7-5---------|
----------------------------------------|
----------------------------------------| (4x)

(Gtr 1)
|----------------------------------------
|----------------------------------------
|----------0------------------0----------
|-------2-------2-------7----------7-----
|----2---------------5-----5----------5--
|-0--------------------------------------

(Gtr 2 - dist.)
|-----------------------------------------
|-----------------------------------------
|----------------------------------7------
|-9---------------7h9-7------7h9-10-7h9-7-
|-----------------------------------------
|-----------------------------------------

(Gtr 3 - dist.)(harmonized w/Gtr 2)
|-----------------------------------------
|------------------------------12---------
|--------11h13-11------11h13-14--11h13-11-
|-----------------------------------------
|-----------------------------------------
|-----------------------------------------

(Gtr 1)
----------------------------------------|
----------------------------------------|
----------0-----------------------------|
-------2-------2-------7----------------|
----2---------------5-----5--3-------2--|
-0--------------------------------3-----| (4x)

(Gtr 2)
----------------------------------------|
----------------------------------------|
----------------------------------------|
-9---------------7h9-7--\-5h7-5---------|
----------------------------------------|
----------------------------------------| (4x)

(Gtr 3)
----------------------------------------|
----------------------------------------|
---------------11h13-11--\-9h11-9-------|
----------------------------------------|
----------------------------------------|
----------------------------------------| (4x)


Chorus:
(Gtr 1)
|---------------------------------------------------------|
|---------------------------------------------------------|
|--------4--2--5-----5----<5>-------------------9-9/10-9\-|
|---2--------------------------2--------------------------|
|---2-------------5-----5------2----2--0--3--5--7-7-/8-7\-|
|-\-0--------------------------0--------------------------|

(Gtr 2)
|---------------------------------------------------------|
|--------------------------------------------3--5-5-/6-5--|
|--------4--2--5-----5----<5>-------4--2--5---------------|
|---2--------------------------2--------------------------|
|---2-------------5-----5------2--------------------------|
|-\-0--------------------------0--------------------------| (6x)

Chorus played under outro until silence

Outro (dist. w/tremelo and/or chorus effect):
|------------------------------------------------------------------
|-----------------------------------13p12-13p12~--12h13-12^--13-12-
|-------12h14-14~---14p12------------------------------------------
|-12h14-------------------14~--------------------------------------
|------------------------------------------------------------------
|------------------------------------------------------------------

----------------12-----12----12----12----12----12----12----12----
-15^-15^-15^-15----15^----15----15^---15----15----15^---15^---15-
-----------------------------------------------------------------
-----------------------------------------------------------------
-----------------------------------------------------------------
-----------------------------------------------------------------

-12~-------------------------------------------------------------
---------------------------------------15\-----------------------
------------12h14-15p12~---------------------------12h14-15p12~--
------12h14--------------14p12-14~-----------12h14---------------
-----------------------------------------------------------------
-----------------------------------------------------------------

-----------------------------------------------------------------
---------------------------------15----12----15~-----15----12~---
------------------12h14-15p12~------12----12------12----12-------
------------12h14------------------------------------------------
-----------------------------------------------------------------
-----------------------------------------------------------------

----------------------------------------------------------12~----
-15^-15-14-12-15~---------------------12h13-15^-12-15^-12--------
-------------------15-15^-14-12-14\------------------------------
-----------------------------------------------------------------
-----------------------------------------------------------------
-----------------------------------------------------------------

-14h15-15^-15^-14-12-15\-----------------------------------------
-----------------------------------------------------------------
--------------------------/15--14--17~------------\--/15--14--/19
-----------------------------------------------------------------
-----------------------------------------------------------------
-----------------------------------------------------------------

         Fade Out begins
-----------------------------------------------------------------
-----------------------------------------------------------------
--17~------------\--/15--14--17~------------\--/15--14--/19--17~-
-----------------------------------------------------------------
-----------------------------------------------------------------
-----------------------------------------------------------------

---------||---------------------||
---------||---------------------||
---------||----19----16~----19~-||
---------||-17----17-----17-----||
---------||---------------------||
---------||---------------------||(8x 'till silence)

  Visit MetalTabs.com for more metal tablature

bottom separator

Contact Us | Privacy Policy | Disclaimer | Legal Notice
Copyright © 2001-2014 MetalTabs.com. All Rights Reserved.