top separator

Home

Forum

What's New

Submit a Tab

FAQ

Links

Contact Us

Link to Us

MuSpy.com

MetalTabs.com logo

Bands

0-9

A

B

C

D

E

F

G

H

I

J

K

L

M

N

O

P

Q

R

S

T

U

V

W

X

Y

Z

Search

What

Where
 

Crimson Glory - "Lady of winter" Guitar Tab

Plain Text Version
More Crimson Glory Tabs

Hits: 6921
Rated: 3.09 out of 5 (11 votes)
Updated: 2002-02-21 15:15:40

 

Important note
We did our best to reach Crimson Glory and ask for their permission to publish this tab. Unfortunately they did not respond to our requests or we could not find a way to contact them. This tab is available online until Crimson Glory tells us to take it down.


#----------------------------------PLEASE NOTE---------------------------------#
#This file is the author's own work and represents their interpretation of the #
#song. You may only use this file for private study, scholarship, or research. #
#Unless specified otherwise, this is NOT an official tab from the band members.#
#------------------------------------------------------------------------------#

  Visit MetalTabs.com for more metal tablature
  
Band: Crimson Glory
Song: Lady Of Winter
Album: Trancendence
Tabs:   Stefan Rutten (steeelpan@yahoo.com) 2001

Guitar I
  Am7                                                          Bb
|---------------|---------------|---------------|-----0--------------|
|---------------|---------------|---------------|-------7-5----------|
|---------------|---------------|---------------|-----------7-5-0----|
|-7-7-7-7-------|---------------|-7-7-7-7-7--5--|-----------------0--|
|-7-7-7-7-------|---------------|-7-7-7-7-7--5--|-----------------0--|
|-5-5-5-5-------|---------------|-5-5-5-5-5--3--|-----------------0--|

  Am7                                                                   Bb
|------------------|-----------------|------------------|------------------|
|------------------|-----------------|------------------|------------------|
|------9----7----7-|----5----4---4-5-|------9----7----7-|----5----75-----0-|
|------------------|-----------------|------------------|------------75--0-|
|-0000---00---00---|-00---00---0-----|-0000---00---00---|-00---00----------|
|------------------|-----------------|------------------|------------------|

  Am7                                                                   Bb
|------------------|-----------------|------------------|-------------------|
|------------------|-----------------|------------------|-------------------|
|------9----7----7-|----5----4---4-5-|------9----7----7-|----5--------------|
|------------------|-----------------|------------------|---------20------3-|
|-0000---00---00---|-00---00---0-----|-0000---00---00---|-00---00----0000---|
|------------------|-----------------|------------------|-------------------|

                  Am7
|---------------|---------------------|------------------|-------------------|
|-------x-------|---------------------|------------------|-------------------|
|--------\------|---------------------|----------------7-|-------------------|
|---------\-----|---------------------|----------------7-|------10----9----9-|
|---------------|-0000-0000-0000-0000-|-0000-0000-0000---|-0000----00---00---|
|---------------|---------------------|------------------|-------------------|


Guitar II:
  Am7                                                          Bb
|-------------------|-----------------|-------------------|------------------|
|-------------------|-----------------|-------------------|------------------|
|-------------------|-----------------|-------------------|---------75-----0-|
|------10----9----9-|----7----5---5-7-|------10----9----9-|----7-------75----|
|-0000----00---00---|-00---00---0-----|-0000----00---00---|-00---00----------|
|-------------------|-----------------|-------------------|------------------|

  Am7                                                                   Bb
|------------------|-----------------|------------------|------------------|
|------------------|-----------------|------------------|------------------|
|------------------|-----------------|------------------|------------------|
|------------------|-----------------|------------------|------------------|
|------------------|-----------------|------------------|------------------|
|------------------|-----------------|------------------|------------------|


  Am7                                                                   Bb
|-------------------|-----------------|-------------------|-----------------10-|
|-------------------|-----------------|-------------------|--------------------|
|-------------------|-----------------|-------------------|--------------------|
|------10----9----9-|----7----5---5-7-|------10----9----9-|----7----75---------|
|-0000----00---00---|-00---00---0-----|-0000----00---00---|-00---00----7500----|
|-------------------|-----------------|-------------------|--------------------|

                  Am7
|---------------|---------------------|------------------|-------------------|
|-------x-------|---------------------|------------------|-------------------|
|--------\------|---------------------|----------------7-|-------------------|
|---------\-----|---------------------|----------------7-|------10----9----9-|
|---------------|-0000-0000-0000-0000-|-0000-0000-0000---|-0000----00---00---|
|---------------|---------------------|------------------|-------------------|

  Visit MetalTabs.com for more metal tablature

bottom separator

Contact Us | Privacy Policy | Disclaimer | Legal Notice
Copyright © 2001-2014 MetalTabs.com. All Rights Reserved.