top separator

Home

Forum

What's New

Submit a Tab

FAQ

Links

Contact Us

Link to Us

MetalTabs.com logo

Bands

0-9

A

B

C

D

E

F

G

H

I

J

K

L

M

N

O

P

Q

R

S

T

U

V

W

X

Y

Z

Search

What

Where
 

Edguy - "Power And Majesty" Guitar Tab

Plain Text Version
More Edguy Tabs

Hits: 6494
Rated: 4.83 out of 5 (23 votes)
Updated: 2002-02-21 14:23:34

 

Important note
This tab is available online because we obtained explicit permission from Edguy or their label.


#----------------------------------PLEASE NOTE---------------------------------#
#This file is the author's own work and represents their interpretation of the #
#song. You may only use this file for private study, scholarship, or research. #
#Unless specified otherwise, this is NOT an official tab from the band members.#
#------------------------------------------------------------------------------#

  Visit MetalTabs.com for more metal tablature
  
                        EDGUY- POWER AND MAJESTY
                     From the Album THE SAVAGE POETRY
                           Copyright 2000 NEMS

                      Version 1.0 - 23 DE ENERO 2002

Transcribed By: Alejandro Masferrer
For Questions, Comments, Corrections, or Newest Version;
               please contact at alejandro_himura@hotmail.com

. :palm mute    LS:Long Sound (dejalo sonar)  !:GUITAR EFFECT

Riff A
|------------------------------------------|
|------------------------------------------|
|------------------------------------------|
|-(5)-----9------hp-------------------9----|
|-(5)-----9-----797-------7-----------9----|
|-(3)-----7-----------10-----10---9---7----|
         L.S.                        L.S.
|------------------------------|
|------------------------------|
|------------------------------|
|---hp-------------------5-----|
|--797-------7-----------5-----|
|--------10-----10--9----3-----|
                        L.S.

|-------------------- L.S----------------|
|---------------------10--11-10----8!----|
|----------------------------------------|
|---hp-----------------------------------|
|--797------7----------------------------|
|-------10-----10--9---------------------|


"SE REPITE EL RIFF "A" SIN TOCAR LO QUE ESTA EN () "


Riff B
|----------------------------------------------------------|
|----------------------------------------------------------|
|----------------------------------------------------------|
|--9-------------------hp----------------9-----------------|
|--9------------------797-----7----------9-----------------|
|--7-777-777-777-777------10-----10--9---7-777-777-777-777-|
     ...............                      ..................

|-----------------------------------------------------L.S-------------|
|-----------------------------------------------------10--11--10---8!-|
|---------------------------------------------------------------------|
|--hp-------------5--------------------hp-----------------------------|
|-797----7--------5-------------------797-----7-----------------------|
|-----10---10-9---3--333-333-333-333-------10---10--9-----------------|
                     ...............
"SE REPITE RIFF B"

RIFF C
|--------------------------------------------------|
|--------------------------------------------------|
|--------------------------------------------------|
|-9---9-----5---7---9----12------12----11----------|
|-9---9-----5---7---9----12------12----11----------|
|-7---7-----3---5---7----10-------9-----9----------|
L.S.              L.S.  L.S.    L.S   L.S

|-----------------------------------------------------------------------------------------------------------------|
|-----------------------------------------------------------------------------------------------------------------|
|-----------------------------------------------------------------------------------------------------------------|
|-9----12------5----5----7---9-----------------12----------------------------12----------------11-----------------|
|-9----12------5----5----7---9-----------------12----------------------------12----------------11-----------------|
|-7----10------3----3----5---7-777-777-777-777-10-101010-101010-101010-101010-9-999-999-999-999-9--999-999-999-999|
L.S.  L.S.   L.S              ...............    ....................
.......  ...............    ...............

|--------------------------------------------------------------------------------|
|--------------------------------------------------------------------------------|
|--------------------------------------------------------------------------------|
|-9-----------------12------------------------------5----------------------------|
|-9-----------------12------------------------------5----------------------------|
|-7-777-777-777-777-10-101010-101010-101010-101010--3-333-333-333-333-333-333-333|
    ...............    ...........................
...........................

PRE- CHORUS
|------------------------------------------------------------|
|------------------------------------------------------------|
|------------------------------------------------------------|
|-----------------------------------------------------5-5-5--|
|-----------------------------------------------------5-5-5--|
|--0--3--2--1--0--3--2--1--0--3--2--1--0-1-0-3--2--1--3-3-3--|

CHORUS:
|-----------------------------------------------------------------|
|------------------------------------------------------------------|
|------------------------------------------------------------------|
|--5------9------------------hp-------------------9----------------|
|--5------9-----------------797-------7-----------9----------------|
|--3------7-777-777-777-777-------10-----10---9---7-777-777-777-777|
            ...............                         ................

|---------------------------------------------------------------------------------------|
|---------------------------------------------------------------------------------------|
|---------------------------------------------------------------------------------------|
|---hp---------------5-------------------hp----------------9-----9----9-9----9----9-----|
|--797-----7---------5------------------797-----7----------9-----9----9-9----9----9-----|
|------10----10--9---3-333-333-333-333------10-----10--9---7--77-7-77-7-7-77-7-77-7-----|
                       ........... ...                        ..   ..     ..
   ..

|-------------------------------------------------------------|
|-------------------------------------------------------------|
|-------------------------------------------------------------|
|----9------------------hp-------------------9----------------|
|----9-----------------797-------7-----------9----------------|
|----7-777-777-777-777-------10-----10---9---7-777-777-777-777|
       ...............                         ...............
|---------------------------------------------------------------------------------------|
|---------------------------------------------------------------------------------------|
|---------------------------------------------------------------------------------------|
|---hp---------------5-------------------hp----------------9-----9----9-9----9----9-----|
|--797-----7---------5------------------797-----7----------9-----9----9-9----9----9-----|
|------10----10--9---3-333-333-333-333------10-----10--9---7--77-7-77-7-7-77-7-77-7-----|
                       ...............                        ..   ..     ..
   ..

"SE REPITE EL RIFF C, EL PRE CHORUS Y EL CHORUS"

RIFF D:
|---------------------------------------------------------------------------------------------|
|---------------------------------------------------------------------------------------------|
|--9-------9------9-12----------12---------12-12-----12-----12-11-----11-----11---se
repite---|
|--9-------9------9-12----------12---------12-12-----12-----12-11-----11-----11----2-veces----|
|--7--777--7--777-7-10--101010--10--101010-10-9--999-9--999-9--9--999-9--999-9----------------|
|-----...-----...---------...------......-----...----...-----.......--------------------------|

LUEGO:
|------------------------------------------------------------------------------------|
|------------------------------------------------------------------------------------|
|---9----12-------12---11----SE
REPITE-----------------------------------------------|
|---9----12-------12---11---- 2
VECES------------------------------------------------|
|---7----10-------9----9-------------------------------------------------------------|
|--L.S---L.S-----L.S--L.S------------------------------------------------------------|

"REPITES RIFF D"

|--------------------------------------------------------------------------|
|--------------------------------------------------------------------------|
|--9-------9------9-12----------12---------12-12-----12-----12--11---------|
|--9-------9------9-12----------12---------12-12-----12-----12--11---------|
|--7--777--7--777-7-10--101010--10--101010-10-9--999-9--999-9---9----------|
|-----...-----...-------......------......-------...----...-----L.S--------|

ACOMPAСAMIENTO DEL SOLO:
|----------------------------------------------------------------------|
|----------------------------------------------------------------------|
|----------------------------------------------------------------------|
|--9---------------------------------5---------------------------------|
|--9---------------------------------5---------------------------------|
|--7-777-777-777-777-777-777-777-777-3-333-333-333-333-333-333-333-333-|
     ...............................   ...............................
|----------------------------------------------------------------------------------------|
|----------------------------------------------------------------------------------------|
|----------------------------------------------------------------------------------------|
|--9----------------------------------12------------------------11-----------------------|
|--9----------------------------------12------------------------11-----------------------|
|--7-777-777-777-777-777-777-777--777-10-101010-101010--101010--9--999-999-999-----------|
     ................................    .....................
............

"SE REPITE EL RIFF C, EL PRE CHORUS Y EL CHORUS"



                                  "LA CANCION ESTA CASI COMPLETA, SOLE ME
FALTA AGREGARLE EL SOLO,
                               PERO LA VERDAD ES QUE ME DA FLOJERA SACARLO Y
ESO ADEMAS ES MISION TUYA"

                                   "LA TABLATURA VA ORDEN A LA CANCION Y
ADEMAS ES ANTI-HUEONES
                                 ASI QUE LO UNICO QUE TINES QUE HACER ES
LEERLA Y HACER LO QUE DICE"

                                              ЎSI ERES GRINGO Y NO CACHAI,
MALA CUEA!

  Visit MetalTabs.com for more metal tablature

bottom separator

Contact Us | Privacy Policy | Disclaimer | Legal Notice
Copyright © 2001-2014 MetalTabs.com. All Rights Reserved.