top separator

Home

Forum

What's New

Submit a Tab

FAQ

Links

Contact Us

Link to Us

MetalTabs.com logo

Bands

0-9

A

B

C

D

E

F

G

H

I

J

K

L

M

N

O

P

Q

R

S

T

U

V

W

X

Y

Z

Search

What

Where
 

My Dying Bride - "Like Gods of the Sun" Guitar Tab

Plain Text Version
More My Dying Bride Tabs

Hits: 9042
Rated: 4.40 out of 5 (5 votes)
Updated: 2002-02-18 15:06:43

 

By:

Darkenelf

sendpm.gif

email.gif

Important note
This tab is available online because we obtained explicit permission from My Dying Bride or their label.


#----------------------------------PLEASE NOTE---------------------------------#
#This file is the author's own work and represents their interpretation of the #
#song. You may only use this file for private study, scholarship, or research. #
#Unless specified otherwise, this is NOT an official tab from the band members.#
#------------------------------------------------------------------------------#

  Visit MetalTabs.com for more metal tablature
  
Band: My Dying Bride
Song: Like Gods Of The Sun
Album: Like Gods Of The Sun

Tabbed by: Martijn Wietsma (dalvanian@yahoo.com)
Tune Down To C#  !!!!

() = not necessary to hit
* = palm mute

Riff 1.1 (play 3x)
E|----------------------------------
B|----------------------------------
G|----------------------------------
D|----------------------------------
A|-2-2---4-5-7-5-8-7-5-7-5-4--------
E|-0-0---2-3-5-3-6-5-3-5-3-2--------

Riff 1.2.
E|----------------------------------
B|----------------------------------
G|----------------------------------
D|----------------------------------
A|----------------------------------
E|-0-0-2-3-5-3-6--------------------

Riff 2.1
E|-------------------------------
B|-------------------------------
G|----2-0------------------------
D|---------0-2-0-3-2-0-2-3-------
A|-0-----------------------------
E|-------------------------------

Riff 2.2.
E|-----------------------------
B|-----------------------------
G|---2-0-----------------------
D|--------0-2-0-3-2-0----------
A|-0---------------------3-2---
E|-----------------------------

Riff 2.3
E|-------------------------------------------
B|-------------------------------------------
G|-0-3-2-0-2-2-------------------------------
D|-------------------------------------------
A|-------------------------------------------
E|-------------------------------------------

Riff 3.1
E|------------------------------------------------
B|------------------------------------------------
G|------------------------------------------------
D|-2-5-5-4-2---9-9-8-8--8-5-5--5-4-4--------------
A|-0-3-3-2-0---7-7-6-6--6-3-3--3-2-2--------------
E|------------(0-0)-------------------------------


Riff 3.2
E|-----------------------------------------------
B|---------------5-5-4-4-------------------------
G|---------------------------4-5-5---4-7-7-------
D|-2-5-5-4-2-------------------------------------
A|-0-3-3-2-0------------------------------------
E|-----------------------------------------------

Riff 4.1
E|--------------------------------------------------
B|--------------------------------------------------
G|--------------------------------------------------
D|--------------------------------------------------
A|-3-2--2-2-2-2--3-2--2-2-2-2--2-3-5-6-5-4----------
E|-1-0--0-0-0-0--1-0--0-0-0-0--0-1-3-4-3-2----------
       * * * *       * * * *


Riff 4.2.
E|-----------------------------------------------
B|-5-4-------------------------------------------
G|-------5-4-5-7-4-------------------------------
D|-----------------------------------------------
A|-----------------------------------------------
E|-----------------------------------------------

  Visit MetalTabs.com for more metal tablature

bottom separator

Contact Us | Privacy Policy | Disclaimer | Legal Notice
Copyright © 2001-2014 MetalTabs.com. All Rights Reserved.