top separator

Home

Forum

What's New

Submit a Tab

FAQ

Links

Contact Us

Link to Us

MuSpy.com

MetalTabs.com logo

Bands

0-9

A

B

C

D

E

F

G

H

I

J

K

L

M

N

O

P

Q

R

S

T

U

V

W

X

Y

Z

Search

What

Where
 

Dying Fetus - "Praise the Lord (Opium of the Masses)" Guitar Tab

Plain Text Version
More Dying Fetus Tabs

Hits: 17654
Rated: 3.43 out of 5 (21 votes)
Updated: 2002-02-16 14:49:17

 

Important note
This tab is available online because we obtained explicit permission from Dying Fetus or their label.


#----------------------------------PLEASE NOTE---------------------------------#
#This file is the author's own work and represents their interpretation of the #
#song. You may only use this file for private study, scholarship, or research. #
#Unless specified otherwise, this is NOT an official tab from the band members.#
#------------------------------------------------------------------------------#

  Visit MetalTabs.com for more metal tablature
  
                     Dying Fetus - Praise The Lord
                     From the Album Destroy The Opposition


Tune Gtr to 1 and 1/2 Steps down(C#)

Praise The Lord

Riff A                                           A.H. (Second time only)
|--------------------------------------------------------|
|-------------------------------------------------3~-----|
|--------------------------------------------------------|Gtr
|------4-5------------------------4-5--------------------| I
|-4-3--2-3--4-3-4--5-4-3----4-3---2-3--4-3-4--5-4-3------|
|-2-1-------2-1-2--3-2-1----2-1--------2-1-2--3-2-1------|

|--------------------------------------------------------------|
|--------------------------------------------------------------|
|--------------------------------------------------------------|
|------4-5-----------------------------------------------------|
|-4-3--2-3--4-3-4--5-4-3----2-4-3-2-3-2-2-2---2-4-3-2-3-2-2-2--|
|-2-1-------2-1-2--3-2-1----0-2-1-0-1-0-0-0---0-2-1-0-1-0-0-0--|
                            . . . . . . . .   . . . . . . . .
Riff B
|--------------------------------------------------------------------------|
|--------------------------------------------------------------------------|
|--------------------------------------------------------------------------|Gtr
|--------------------------------------------------------------------------| I
|-3---7h8p7h8p7h8p7--3---7h8p7h8p7h8p7--3---7h8p7h8p7h8p7--9h10p9-xx-7h8p7-|
|-1-0----------------1-0----------------1-0--------------------------------|
|                                                                          |
|--------------------------------------------------------------------------|
|--------------------------------------------------------------------------|
|--------------------------------------------------------------------------|Gtr
|--------------------------------------------------------------------------| II
|-3------------------3------------------3------------------9h10p9-xx-7h8p7-|
|-1------------------1------------------1----------------------------------|

|-----------------------------------------------------------------------|
|-----------------------------------------------------------------------|
|-----------------------------------------------------------------------|
|-----------------------------------------------------------------------|
|-3---7h8p7h8p7h8p7--3---7h8p7h8p7h8p7--5h8p5p0-4h7p4p0-3h6p3p0-4h7p4p0-|
|-1-0----------------1-0------------------------------------------------|

|--------------------------------------------------------------------------|
|--------------------------------------------------------------------------|
|--------------------------------------------------------------------------|
|--------------------------------------------------------------------------|
|-3---7h8p7h8p7h8p7--3---7h8p7h8p7h8p7--3---7h8p7h8p7h8p7--9h10p9-xx-7h8p7-|
|-1-0----------------1-0----------------1-0--------------------------------|

|------------------------------------------------------------------------|
|------------------------------------------------------------------------|
|------------------------------------------------------------------------|  End of
|---------------------------------------9/10----8/9-----7/8-----9/10-----|  Riff B
|-3---7h8p7h8p7h8p7--3---7h8p7h8p7h8p7--7/8-----6/7-----5/6-----7/8------|
|-1-0----------------1-0--------------------0-0-----0-0-----0-0----------|
                                            . .     . .     . .
Repeat Riff B 2 More times

Riff C
|------------------------------------------------------------------------------------------------------|
|------------------------------------------------------------------------------------------------------|
|------------------------------------------------------------------------------------------------------|
|------------------------------------------------------------------------------------------------------|
|-----------------------------------777777710101010109999999101010101212121212101010109999991010101010-|
|-0-1-3-1-4-3-1-3--0-1-3-1-4-3-1-3---------------------------------------------------------------------|
                                    ..................................................................
Repeat Riff C Twice
                                   I have no idea whats going on here
Riff D                             Please email me if you figure it out
|--------------------------------------------------------------------|
|--------------------------------------------------------------------|
|--------------------------------------------------------------------|
|--------------------------------------------------------------------|
|-3-5-3-6-3-5-3-6-3-5-3-6-3-5-3-6------------------------------------|
|-1-3-1-4-1-3-1-4-1-3-1-4-1-3-1-4------------------------------------|
  . . . . . . . . . . . . . . . .

Riff D 4 Times
Riff C 2 Times

Breakdown
|-----------------------------------------------------------------------------|
|-----------------------------------------------------------------------------|
|-----------------------------------------------------------------------------|
|-----------------------------------------------------------------------------|
|-2-3-5--2-2-3-6-2-2-2-2--2-3-5--2-2-3-6--3-3-3--2-3-5--2-2-3-6-2-2-2-2-------|
|-0-1-3--0-0-1-4-0-0-0-0--0-1-3--0-0-1-4--1-1-1--0-1-3--0-0-1-4-0-0-0-0-------|
         .       . . . .         .        . . .         .
|----------------------------------------------------------|
|----------------------------------------------------------|
|----------------------------------------------------------|
|----------------------------------------------------------|
|-2-3-5--2-2-3-6-2-2-2-2--2-3-5--2-2-3-6--3-3-3------------|
|-0-1-3--0-0-1-4-0-0-0-0--0-1-3--0-0-1-4--1-1-1------------|
         .       . . . .         .        . . .
                          A.H
|-----------------------------------------|
|-----------------------------------------|
|--------------------------3~-------------|
|-----------------------------------------|
|-2--3--2--3----------2-3-----------------|
|-0--1--0--1--4~--3~--0-1-----------------|
  .  .  .  .          . .

  If anyone knows the little solo parts in here please email me them
|--------------------------------------------------------------------|
|--------------------------------------------------------------------|
|--------------------------------------------------------------------|
|--------------------------------------------------------------------|
|-6-9-6-9-------6-9-6-9------7-10-7-10--------7-10-7-10--------------|
|--------------------------------------------------------------------|
  . . . .       . . . .      .  . .  .        . .  . .

Solo (Email me if you have the solo, thanks)
|--------------------------------------------------------------------|
|--------------------------------------------------------------------|
|--------------------------------------------------------------------|
|--------------------------------------------------------------------|
|-9-8-6--10-9-7-6-5-4-3-2--------------------------------------------|
|--------------------------------------------------------------------|
  . . .  .  . . . . . . .

|--------------------------------------------------------------------|
|--------------------------------------------------------------------|
|--------------------------------------------------------------------|
|--------------------------------------------------------------------|
|-7\--5-3-6-5-3-5--7\--5-3-6-5-3-5--7\--5-3-6-5-3-5--7\--3-5-6-5-6-4-|
|-5\--3-1-4-3-1-3--5\--3-1-4-3-1-3--5\--3-1-4-3-1-3--5\--1-3-4-3-4-2-|
      . . . . . .      . . . . . .      . . . . . .      . . . . . .

  Visit MetalTabs.com for more metal tablature

bottom separator

Contact Us | Privacy Policy | Disclaimer | Legal Notice
Copyright © 2001-2014 MetalTabs.com. All Rights Reserved.